Song name
# A B C D E F G H I J K L M N O P Q R S T U V W X Y Z

Bon Voyage - Together chords

Highlighted       Show chord diagrams
Song: Together
Artist: Bon Voyage
Album: Bon Voyage
Tabbed By: Caleb M.

F#  Bm                F#
You know what's going on
Bm                  F#
Think we'll make it through?
     G#m  B    C#        F#     G#m B C#
It's all okay, we will always be together

F#    Bm            F# 
We'll save a broken heart
Bm                  F#
Think we'll make it through?
     G#m  B    C#        F#     G#m B C#    F#
It's all okay, we will always be together
     G#m  B    C#        F#     G#m B C#
It's all okay, we will always be together
 

Ending

e|-----2----------------------------2---------2-|
B|-------------2h4-2-2--------------------4-6-2-|
G|---3---3-3h4--------------3h4---3---3-4-4-6-3-|
D|-4----------------------------4---------4-6-4-|
A|----------------------------------------2-4-4-|
E|--------------------------------------------2-|

Chords

e|-2----2----4-----------|
B|-2----3----4----4----6-|
G|-3----4----4----4----6-|
D|-4----4----6----4----6-|
A|-4----2----6----2----4-|
E|-2---------4-----------|
   F#   Bm  G#m   B    C#
Tap to rate this tab
# A B C D E F G H I J K L M N O P Q R S T U V W X Y Z