Song name
# A B C D E F G H I J K L M N O P Q R S T U V W X Y Z

Boocray - Every Little Thing tab

Help us improve GuitareTab! Take a short survey!
--------------------------------------------------------------
--------------------------------------------------------------
----5-4----------5-4---------5-4------------------------------
----------5-3-2-------5-3-2------5-3-2-3-5---0-2--------------
-3------------------------------------------------3-----------
--------------------------------------------------------------

--------------------------------------------------------------
--------------------------------------------------------------
---5-4--------5-4--------5-4-5-7-9-10-9-7-9-7-5---------------
--------5-3-2-----5-3-2---------------------------------------
-3------------------------------------------------------------
--------------------------------------------------------------
Related for Every Little Thing tab