Song name
# A B C D E F G H I J K L M N O P Q R S T U V W X Y Z

Borat - Borat Theme tab

Help us improve GuitareTab! Take a short survey!
I hope you like. Is nice. I like.

e|---6-6-5-6-5-------------------5-5-3-5-3---------------|
B|-------------8--6-8-6--------------------6--3-4-3------|
G|-7--------------------8-8----5--------------------5-7--|
D|-------------------------------------------------------|
A|-------------------------------------------------------|
E|-------------------------------------------------------|

e|---3-3-1-3-1-------------------------3-2------------------|
B|-------------4-3--1-3-1------------4-----4-3---3-------3--|
G|-3----------------------3-2----2-5-----------5---5-3-5----|
D|----------------------------------------------------------|
A|----------------------------------------------------------|
E|----------------------------------------------------------|

e|---6-6-5-6-5-------------------5-5-3-5-3---------------|
B|-------------8--6-8-6--------------------6--3-4-3------|
G|-7--------------------8-8----5--------------------5-7--|
D|-------------------------------------------------------|
A|-------------------------------------------------------|
E|-------------------------------------------------------|

e|---3-3-1-3-1-------------------------3-2------------------|
B|-------------4-3--1-3-1------------4-----4-3---3----------|
G|-3----------------------3-2----2-5-----------5---5-3-2----|
D|-------------------------------------------------------5--|
A|----------------------------------------------------------|
E|----------------------------------------------------------|
Related for Borat Theme tab