Song name
# A B C D E F G H I J K L M N O P Q R S T U V W X Y Z

Born Ruffians - I Need A Life tab

I Need A Life
Born Ruffians

Pretty easy tab, listen to the song for the strumming pattern. 
Standard Tuning (EADGBe)

Song starts of with a bass intro and singing and then the guitar joins in with this:

Intro
e|-------------------------------------------------------------------------|
B|-------------------------------------------------------------------------|
G|-------------------------------------------------------------------------|
D|-------------------------------------------------------------------------|
A|-4-------------4----------9--------------5-------------------------------|
E|-5------------------------9--------------5-------------------------------|

THen the verse chords [part 1]
e|--5-x-5-5-------4-x-4-4--------9--x--9--9--------10-x-10-10--------------|
B|--5-x-5-5-------5-x-5-5--------10-x--10-10-------10-x-10-10--------------|
G|--6-x-6-6-------6-x-6-6--------11-x--11-11-------11-x-11-11--------------|
D|--7-x-7-7x8----6-x-6-6-x4-----11-x--11-11x4----12-x-12-12--------------|
A|--7-x-7-7-------4-x-4-4--------9--x--9--9--------12-x-12-12x4-----------|
E|--5-x-5-5----------------------------------------10-x-10-10--------------|

Then: (on the sixth time round, end on an A chord)[ part 2]
e|----------------------------------------------10---10-10---|---5----|
B|-8-8-8-8-8-8-8-8/-13-13--12--10--12---12-12---10---10-10---|---5----|
G|-9-9-9-9-9-9-9-9/-14-14--11--11--12---12-12---11---11-11---|---6----|
D|---------------------------------12---12-12---12---12-12---|---7----|  x6
A|---------------------------------10---10-10---12---12-12---|---7----|
E|----------------------------------------------10---10-10---|---5----|

Repeat the Verse [part 1]
And then do [part 2]

Then after the little bass and singing part:
e|--5-----4----4--------9--------9-----9-------10---10---------------------|
B|--5-----5----5--------10--------10----10-----10---10---------------------|
G|--6-----6----6--------11---11-----11----11---11---11--start-continuously-|
D|--7-----6----6--------11---------------------12---12---strumming---------|
A|--7-----4----4--------9----------------------12---12---------------------|
E|--5------------------------------------------10---10---------------------|

THen start strumming the verse chords over and over
    
    AM  Cm  F#m  DM 
e|--5---4---9----10--------------------------------------------------------|
B|--5---5---10---10--------------------------------------------------------|
G|--6---6---11---11--------once through------------------------------------|
D|--7---6---11---12--------------------------------------------------------|
A|--7---4---9----12--------------------------------------------------------|
E|--5------------10--------------------------------------------------------|

THen
e|-5-5-5-x-4-4-4-x-9--9--9--x-10-10-10-x-----------------------------------|
B|-5-5-5-x-5-5-5-x-10-10-10-x-10-10-10-x-----------------------------------|
G|-6-6-6-x-6-6-6-x-11-11-11-x-11-11-11-x-----------------------------------|
D|-7-7-7-x-6-6-6-x-11-11-11-x-12-12-12-xx8--------------------------------|
A|-7-7-7-x-4-4-4-x-9--9--9--x-12-12-12-x-----------------------------------|
E|-5-5-5-x-------x----------x-10-10-10-x-----------------------------------|




Finally:
e|--5-x-5-5----------------------------------------------------------------|
B|--5-x-5-5----------------------------------------------------------------|
G|--6-x-6-6----------------------------------------------------------------|
D|--7-x-7-7x5-------------------------------------------------------------|
A|--7-x-7-7----------------------------------------------------------------|
E|--5-x-5-5----------------------------------------------------------------|

And thats it. Hope you enjoy 

Tap to rate this tab
 
# A B C D E F G H I J K L M N O P Q R S T U V W X Y Z