Guitaretab - guitar tabs
Song name
# A B C D E F G H I J K L M N O P Q R S T U V W X Y Z

Borsato Marco - Dromen Zijn Bedrog tab

Highlighted       Show chord diagrams
Intro: Cm | Fm | Bb | G      |
       Cm | Fm | Bb | G (G8) |

  Cm    Fm     Bb    G  Cm   Fm     Bb     G Cm
E|--------------------------------------------------------------------------|
B|-8--9-11-9---8--------8-9-8----8--9-11-9---8--------8-9-8---19b20-b20-b20-|
G|---------------8-10--------------------------8-10-------------------------|
D|--------------------------------------------------------------------------|
A|--------------------------------------------------------------------------|
E|--------------------------------------------------------------------------|

   Cm                 Fm
Steeds als ik je zie lopen
             Bb                    Eb
Dan gaat de hemel een klein beetje open
  Ab                    Db
Sterren, je laat ze verbleken
       G                  Cm
Met je ogen die altijd stralen
 Fm                     Bb
Jij kan de zon laten schijnen
               Eb
Want je loopt langs
       Eb\D        Cm
En de wolken verdwijnen
           Fm
En als je lacht
               G        (G8)
Lacht heel de wereld mee 

           Cm            Fm
De meeste dromen zijn bedrog
              Bb               
Maar als ik wakker word naast jou
              Ebsus4 Eb
Dan droom ik nog
            Cm               Fm
Ik voel je adem en zie je gezicht
              G (G8)
Je bent een droom die naast me ligt
    Cm                     Bb\D             
Je kijkt me aan en rekt je uit
         Fm                        Cm G (G8) Cm
Een keer in de zoveel tijd komen dromen.....uit 

  Cm    Fm    Bb     G Cm
E|----------------------------------------|
B|-8--9-11-9---8--------8-9-8---7b8-b8-b8-|
G|---------------8-10---------------------|
D|----------------------------------------|
A|----------------------------------------|
E|----------------------------------------|

Jij moet me een ding beloven
Laat me nog leng in mijn dromen geloven
Zelfs als je even niet hier bent
Blijf in mijn slaap dan bij me
En als de zon weer gaat schijnen
Laat dan dat beeld dat ik heb niet verdwijnen
Als je zou gaan
Neem je mijn dromen mee 
[ Tab from: http://www.guitaretab.com/b/borsato-marco/2138.html ]
De meeste dromen zijn bedrog
Maar als ik wakker word naast jou
Dan droom ik nog
Ik voel je adem en zie je gezicht
Je bent een droom die naast me ligt
Je kijkt me aan en rekt je uit
En keer in de zoveel tijd komen dromen uit 

  Cm    Fm    Bb     G 
E|-------------------------------|
B|-8--9-11-9---8--------8-9-8----|
G|---------------8-10------------|
D|-------------------------------|
A|-------------------------------|
E|-------------------------------|

Fm                     Bb
Jij kan de zon laten schijnen
               Eb
Want je loopt langs
       Eb\D        Cm
En de wolken verdwijnen
           Fm
En als je lacht
               G  G\A G\B G    
Lacht heel de wereld mee

           Cm            Fm
De meeste dromen zijn bedrog
              Bb               
Maar als ik wakker word naast jou
              Ebsus4 Eb
Dan droom ik nog
            Cm               Fm
Ik voel je adem en zie je gezicht
              G        Am        Bm G
Je bent een droom die naast me ligt
    Cm                     Bb\D             
Je kijkt me aan en rekt je uit
        Fm                        Cm G Cm
En keer in de zoveel tijd komen dromen uit

Solo:
  Cm       Fm   Bb             Ebsus4Eb Cm
e|-------------------------10-11-10-11-13-15--15-|-15-13----------|
B|-13--13-13-11-13---11-13-----------------------|-------16-15-16-|
G|-----------------------------------------------|----------------|
D|-----------------------------------------------|----------------|
A|-----------------------------------------------|----------------|
E|-----------------------------------------------|----------------|
   Fm            G      Am     BmG
e|-16-15-13-------|----15-19-20-19-20-22b23--|
B|----------16-15-|-15-----------------------|
G|----------------|--------------------------|
D|----------------|--------------------------|
A|----------------|--------------------------|
E|----------------|--------------------------|

    Cm                     Bb\D             
Je kijkt me aan en rekt je uit
        Fm                        Cm G Cm
En keer in de zoveel tijd komen dromen uit

N.C.
De meeste dromen zijn bedrog
Maar als ik wakker word naast jou
Dan droom ik nog
Ik voel je adem en zie je gezicht
Je bent een droom die naast me ligt
Je kijkt me aan en rekt je uit
En keer in de zoveel tijd komen dromen uit



Good luck grts da kaak