Song name
# A B C D E F G H I J K L M N O P Q R S T U V W X Y Z

Bouncing Souls - Lifetime tab

Song: Lifetime
Band: Bouncing Souls
Album: How I Spent My Summer Vacation (2001)

Standard Tuning

Intro (acoustic)
e|------------------|
B|-5-5-5-5-6-6-6-6--|
G|--5-5-5-5-5-5-5-5-|
D|------------------|
A|------------------|
E|------------------|

Verse (electric)
e|-------------------------------------|
B|-------------------------------------|
G|-55-5-5-5-55-5-5-5-77-7-7-7----------|
D|-55-5-5-5-55-5-5-5-77-7-7-7-55-5-5-5-|
A|-33-3-3-3-22-2-2-2-55-5-5-5-55-5-5-5-|
E|----------------------------33-3-3-3-|

Chorus
e|--------------------------------------------------------------------------|
B|--------------------------------------------------------------------------|
G|-5~--------5~--------5~-7~-10~--------------------------------------------|
D|-5~-5~-3~--5~-5~-3~--5~-7~-10~--------------------------------------------|
A|-3~-5~-3~--3~-5~-3~--3~-5~--8~--------------------------------------------|
E|----3~-1~-----3~-1~-------------------------------------------------------|

Thats pretty much it, later in the song the chorus is played faster, but its still the 
chords.
Tap to rate this tab
# A B C D E F G H I J K L M N O P Q R S T U V W X Y Z