Song name
# A B C D E F G H I J K L M N O P Q R S T U V W X Y Z

Bound For Glory - When The Hammer Falls tab

Intro:

|----------------|
|----------------|
|--9--7----------|
|--9--7-------2--|
|--7--5-------2--|
|--------x-x--0--|

Verse:
|------------------|
|------------------|
|--99999--77777----|
|--99999--77777-7--|
|--77777--55555-7--|
|---------------5--|

Chorus:
|---------------------------|
|---------------------------|
|--99999--77777-------------|
|--99999--77777--777--5--2--|
|--77777--55555--777--5--2--|
|----------------555--3--0--|

There you have it...For the Timing, just listen to the song.


Tap to rate this tab
# A B C D E F G H I J K L M N O P Q R S T U V W X Y Z