Song name
# A B C D E F G H I J K L M N O P Q R S T U V W X Y Z

Bowling For Soup - Stacys Mom tab

Bowling For Soup - "Stacy's Mom"
__________________________________________________________________

Verse

e---------------------------------|
B---------------------------------|
G---------------------------------|
D-2-2-2-2-7-7-7-7-9-9-9-9-7-7-7-7-|
A-2-2-2-2-7-7-7-7-9-9-9-9-7-7-7-7-|
E-0-0-0-0-5-5-5-5-7-7-7-7-5-5-5-4-|
  * * * * * * * * * * * * * * * *

Bridge

e-----------------------------------------------|
B-----------------------------------------------|
G-----------------------------------------------|
D-6--6--6--6--7--7--7--7--6--6--6--6--7-7-7-7-7-|
A-6--6--6--6--7--7--7--7--6--6--6--6--7-7-7-7-7-|
E-4--4--4--4--5--5--5--5--4--4--4--4--5-5-5-5-5-|

Chorus 1

e------------------------------------------------|
B------------------------------------------------|
G---------9-9-9-9-4-4-4-4-6-6-6-6----------------|
D-7-7-7-7-9-9-9-9-4-4-4-4-6-6-6-6----------------|               2x
A-7-7-7-7-7-7-7-7-2-2-2-2-4-4-4-4----------------|
E-5-5-5-5----------------------------------------|

e-----------------------------------------------------------------|
B-----------------------------------------------------------------|
G---------9-9-9-9-5-5-5-5-6-6-6-6---------------------------------|
D-7-7-7-7-9-9-9-9-5-5-5-5-6-6-6-6-7-7-7-7-7-7-7-7-9-9-9-9-9-9-9-9-|
A-7-7-7-7-7-7-7-7-3-3-3-3-4-4-4-4-7-7-7-7-7-7-7-7-9-9-9-9-9-9-9-9-|
E-5-5-5-5-------------------------5-5-5-5-5-5-5-5-7-7-7-7-7-7-7-7-|

Solo

Guitar I

e-----------------------------------------------------------------|
B-----------------------------------------------------------------|
G-5-5-5-5---------7-7-7-7-9-9-9-9-5-5-5-5---------4-4-4-4-4-4-4-4-|
D-5-5-5-5-5-5-5-5-7-7-7-7-9-9-9-9-5-5-5-5-5-5-5-5-4-4-4-4-4-4-4-4-|
A-3-3-3-3-5-5-5-5-5-5-5-5-7-7-7-7-3-3-3-3-5-5-5-5-2-2-2-2-2-2-2-2-|
E---------3-3-3-3-------------------------3-3-3-3-----------------|

Guitar II

e----------------------------------------------------------------|
B----------------------------------------------------------------|
G-5-7-9---7-----------------------5-7-9---7-------4---5-4-5-4~---|
D-----------9---5-7-7-7-5-9---7-5-----------9---5----------------|
A----------------------------------------------------------------|
E----------------------------------------------------------------|

e-----------------------------------------------------------------|
B-------------------------------------------------4-5-4-5---------|
G-5-7-9---7-----------------------5-7-9---7-------4-5-4-5-8-9-8-9-|
D-----------9---5-7-7-7-5-9---7-5-----------9---5-----------------|
A-----------------------------------------------------------------|
E-----------------------------------------------------------------|

Chorus 2

e------------------------------------------------|
B------------------------------------------------|
G-5-5-5-5---------7-7-7-7-9-9-9-9----------------|
D-5-5-5-5-5-5-5-5-7-7-7-7-9-9-9-9----------------|               2x
A-3-3-3-3-5-5-5-5-5-5-5-5-7-7-7-7----------------|
E---------3-3-3-3--------------------------------|

e-----------------------------------------------------------------|
B-----------------------------------------------------------------|
G-5-5-5-5---------4-4-4-4-9-9-9-9-5-5-5-5-5-5-5-5-7-7-7-7-7-7-7-7-|
D-5-5-5-5-5-5-5-5-4-4-4-4-9-9-9-9-5-5-5-5-5-5-5-5-7-7-7-7-7-7-7-7-|
A-3-3-3-3-5-5-5-5-2-2-2-2-7-7-7-7-3-3-3-3-3-3-3-3-5-5-5-5-5-5-5-5-|
E---------3-3-3-3-------------------------------------------------|


Order:

Verse 14x
Bridge
Chorus
Verse 10x
Bridge
Chorus 1
Solo (not 100% correct)
Chorus 2 2x
Tap to rate this tab
 
# A B C D E F G H I J K L M N O P Q R S T U V W X Y Z