Song name
# A B C D E F G H I J K L M N O P Q R S T U V W X Y Z

Bowling For Soup - Ridiculous tab

intro/verse
E|-------------------------------------------------------------------||
B|-------------------------------------------------------------------||
G|-7-7----7--7-7-7-7-------------------------------------------------||
D|-7-7--7----7-7-7-7--7-7----7--7-7-7-7--9-9----9--9-9-9-9-----------||
A|-5-5-------5-5-5-5--7-7--7----7-7-7-7--9-9--9----9-9-9-9-----------||
E|--------------------5-5-------5-5-5-5--7-7-------7-7-7-7-----------||

continued
E|------------------------------||
B|------------------------------||
G|------------------------------||
D|-7-7----7--7-7-7-7------------||
A|-7-7--7----7-7-7-7------------||
E|-5-5-------5-5-5-5------------||

pre chorus
E|------------------------------------------------------------------||
B|------------------------------------------------------------------||
G|-77-7-7-7-7-7-7-7-7-----------------------------------------------||
D|-77-7-7-7-7-7-7-7-7-77-7-7-7-7-7-7-7-7-99-9-9-9-9-9-9-9-9---------||
A|-55-5-5-5-5-5-5-5-5-77-7-7-7-7-7-7-7-7-99-9-9-9-9-9-9-9-9---------||
E|--------------------55-5-5-5-5-5-5-5-5-77-7-7-7-7-7-7-7-7---------||
 PM   . . . . . . . .    . . . . . . . .    . . . . . . . .


E|--------------------------------||
B|--------------------------------||
G|--------------------------------||
D|-77-7-7-7-7-7-7-7-7-------------||
A|-77-7-7-7-7-7-7-7-7-------------||
E|-55-5-5-5-5-5-5-5-5-------------||
 PM   . . . . . . . .

Chorus p1
E|------------------------------------------------------------------||
B|------------------------------------------------------------------||
G|-7-7-7-7-7-7-7-7--------------------------------------------------||
D|-7-7-7-7-7-7-7-7-4-4-4-4-4-4-4-4-7-7-7-7-7-7-7-7------------------||
A|-5-5-5-5-5-5-5-5-4-4-4-4-4-4-4-4-7-7-7-7-7-7-7-7------------------||
E|-----------------2-2-2-2-2-2-2-2-5-5-5-5-5-5-5-5------------------||


E|------------------------------------------------------------------||
B|------------------------------------------------------------------||
G|-7-7-7-7-7-7-7-7--------------------------------------------------||
D|-7-7-7-7-7-7-7-7-5-5-5-5-5-5-5-5----------------------------------||
A|-5-5-5-5-5-5-5-5-5-5-5-5-5-5-5-5----------------------------------||
E|-----------------3-3-3-3-3-3-3-3----------------------------------||

chorus p2

E|-------------------------------------------------------------------||
B|-------------------------------------------------------------------||
G|-7-7-7-7-6-6-6-6-4-4-4-4-2-2-2-2-7-7-7-7-7-7-7-7-7-7-7-7-7-7-7-----||
D|-7-7-7-7-6-6-6-6-4-4-4-4-2-2-2-2-7-7-7-7-7-7-7-7-7-7-7-7-7-7-7-----||
A|-5-5-5-5-4-4-4-4-2-2-2-2-0-0-0-0-5-5-5-5-5-5-5-5-5-5-5-5-5-5-5-----||
E|-------------------------------------------------------------------||

bridge, i think this is just played over and over
E|--------------------------------------------------------------||
B|--------------------------------------------------------------||
G|-7-7-7-7-7-7-7-7----------------------------------------------||
D|-7-7-7-7-7-7-7-7-4-4-4-4-4-4-4-4------------------------------||
A|-5-5-5-5-5-5-5-5-4-4-4-4-4-4-4-4------------------------------||
E|-----------------2-2-2-2-2-2-2-2------------------------------||
thats all, enjoy
Tap to rate this tab
# A B C D E F G H I J K L M N O P Q R S T U V W X Y Z