Guitaretab - guitar tabs
Song name
# A B C D E F G H I J K L M N O P Q R S T U V W X Y Z

Bowling For Soup - Ridiculous tab

enjoy this tab guys. i couldn't get the piano parts done on the guitar because i 
cant hear it well so i'll let you guys figure it out yourselves :)

comment and rate plz!

intro/verse
E|----------------------------------------------||
B|----------------------------------------------||
G|-77777777-------------------------------------||   3x
D|-77777777--77777777--99999999--77777777-------||
A|-55555555--77777777--99999999--77777777-------||
E|-----------55555555--77777777--55555555-------||

Then I fall..
E|------------------------------------------------------------------||
B|------------------------------------------------------------------||
G|-77-7-7-7-7-7-7-7-7-----------------------------------------------||
D|-77-7-7-7-7-7-7-7-7-77-7-7-7-7-7-7-7-7-99-9-9-9-9-9-9-9-9---------||
A|-55-5-5-5-5-5-5-5-5-77-7-7-7-7-7-7-7-7-99-9-9-9-9-9-9-9-9---------||
E|--------------------55-5-5-5-5-5-5-5-5-77-7-7-7-7-7-7-7-7---------||
 PM   . . . . . . . .    . . . . . . . .    . . . . . . . .

E|--------------------------------||
B|--------------------------------||
G|--------------------------------||
D|-77-7-7-7-7-7-7-7-7-------------||
A|-77-7-7-7-7-7-7-7-7-------------||
E|-55-5-5-5-5-5-5-5-5-------------||
 PM   . . . . . . . .
[ Tab from: http://www.guitaretab.com/b/bowling-for-soup/192541.html ]
And you know..
E|------------------------------------------------------------------||
B|------------------------------------------------------------------||
G|------------------------------------------------------------------||
D|-55555555-44444444--7777777777777777------------------------------||
A|-55555555-44444444--7777777777777777------------------------------||
E|-33333333-22222222--5555555555555555------------------------------||

A pocket full of posies..
E|--------------------------||
B|--------------------------||
G|--------------------------||
D|-99999999--55555555-------||
A|-99999999--55555555-------||
E|-77777777--33333333-------||

Chorus
E|--------------------------------------------------------||
B|--------------------------------------------------------||
G|-7-7-77-------------------------------------------------||    2x
D|-7-7-77--7-7-77--9-9-99--7-7-77---55555555--------------||
A|-5-5-55--7-7-77--9-9-99--7-7-77---55555555--------------||
E|---------5-5-55--7-7-77--5-5-55---33333333--------------||

chorus part 2
E|-------------------------------------------------------------------||
B|-------------------------------------------------------------------||
G|-7-7-7-7-6-6-6-6-4-4-4-4-2-2-2-2-7-7-7-7-7-7-7-7-7-7-7-7-7-7-7-----||
D|-7-7-7-7-6-6-6-6-4-4-4-4-2-2-2-2-7-7-7-7-7-7-7-7-7-7-7-7-7-7-7-----||
A|-5-5-5-5-4-4-4-4-2-2-2-2-0-0-0-0-5-5-5-5-5-5-5-5-5-5-5-5-5-5-5-----||
E|-------------------------------------------------------------------||


bridge
E|-------------------------------------------------------||
B|-------------------------------------------------------||
G|-------------------------------------------------------||
D|-4444-5555-7777------55555555-44444444-99999999--------||
A|-4444-5555-7777(x3)-55555555-44444444-99999999--------||
E|-2222-3333-5555------33333333-22222222-77777777--------||
Related for Ridiculous tab