Song name
# A B C D E F G H I J K L M N O P Q R S T U V W X Y Z

Bowling For Soup - Psycho tab

Help us improve GuitareTab! Take a short survey!
-----------------------------------------------------------------
Psycho - Bowling For Soup
-----------------------------------------------------------------
Tabbed by: Bair
Email: bair_morritt@hotmail.com
Tuning: Standard

This is off the self-titled album from 1994 back when BFS was almost
punk so its pretty simple :)

Intro:
e|---------------------------------------------------------------|
B|---------------------------------------------------------------|
G|--777---------------777----------------------------------------|
D|--777--777--9-9--5--777--777--55--99--77-----------------------|
A|--555--777--9-9--5--555--777--55--99--77-----------------------|
E|-------555--7-7--3-------555--33--77--55-----------------------|

e|---------------------------------------------------------------|
B|---------------------------------------------------------------|
G|--777---------------777-----------77---------------------------|
D|--777--777--9-9--5--777--777--55--77---------------------------|
A|--555--777--9-9--5--555--777--55--55---------------------------|
E|-------555--7-7--3-------555--33-------------------------------|

Verse:
e|---------------------------------------------------------------|
B|---------------------------------------------------------------|
G|---------55555---------55555---------55555---------------------|
D|--33333--55555--33333--55555--33333--55555--5555555555--(X4)---|
A|--33333--33333--33333--33333--33333--33333--5555555555---------|
E|--11111---------11111---------11111---------3333333333---------|
"I told you time and time again...."

Chorus:
e|---------------------------------------------------------------|
B|---------------------------------------------------------------|
G|--777-----------------777--------------------------------------|
D|--777--777--999--555--777--777--55--99--77--(X2)---------------|
A|--555--777--999--555--555--777--55--99--77---------------------|
E|-------555--777--333-------555--33--77--55---------------------|
"Cause I cant seem to tell her exactly...."
Related for Psycho tab