Song name
# A B C D E F G H I J K L M N O P Q R S T U V W X Y Z

Bowling For Soup - Straight To Video tab

Song: Straight To Video
Artist: Bowling For Soup
Album: The Great Burrito Extortion Case
Year: 2006

I haven't tabbed anything in a while so hopefully this 
is decent.  I can't believe that no one requested this one.
So anyways, here it is.

Riff (Guitar 1):

e|---------------------------------------------------------------------------|
B|---------------------------------------------------------------------------|
G|--------------------2-2-----4-4--------------------------------------------|
D|----2-2-----4-4-----2-2-----4-4--------------------------------------------|
A|----2-2-----4-4-----0-0-----2-2--------------------------------------------|
E|----0-0-----2-2------------------------------------------------------------|


Riff (Guitar 2):

e|----2---2-0-2---2-0-2---2-0-2-4-2-0----------------------------------------|
B|---------------------------------------------------------------------------|
G|---------------------------------------------------------------------------|
D|---------------------------------------------------------------------------|
A|---------------------------------------------------------------------------|
E|---------------------------------------------------------------------------|


Verse:

e|---------------------------------------------------------------------------|
B|---------------------------------------------------------------------------|
G|---------------------------------------------------------------------------|
D|----2-2-2-2-2-2-2-2-6-6-6-6-6-6-6-6-7-7-7-7-7-7-7-7-7-7-7-7-7-7-7-7--------|
A|----2-2-2-2-2-2-2-2-6-6-6-6-6-6-6-6-7-7-7-7-7-7-7-7-7-7-7-7-7-7-7-7--------|
E|----0-0-0-0-0-0-0-0-4-4-4-4-4-4-4-4-5-5-5-5-5-5-5-5-5-5-5-5-5-5-5-5--------|
Mute:     * * * * * * * * * * * * * * * * * * * * * * * * * * * * * * 


Pre-Chorus:

e|---------------------------------------------------------------------------|
B|---------------------------------------------------------------------------|
G|----6-6-6-6-6-6-6-6-4-4-4-4-4-4-4-4-2-2-2-2-2-2-2-2-2----------------------|
D|----6-6-6-6-6-6-6-6-4-4-4-4-4-4-4-4-2-2-2-2-2-2-2-2-2----------------------|
A|----4-4-4-4-4-4-4-4-2-2-2-2-2-2-2-2-0-0-0-0-0-0-0-0-0----------------------|
E|---------------------------------------------------------------------------|


Chorus:

e|---------------------------------------------------------------------------|
B|---------------------------------------------------------------------------|
G|--------------------4-4-4-4-4-4-4-4-2-2-2-2-2-2-2-2-2-2-2-2-2-2-2-2--------|
D|----2-2-2-2-2-2-2-2-4-4-4-4-4-4-4-4-2-2-2-2-2-2-2-2-2-2-2-2-2-2-2-2--------|
A|----2-2-2-2-2-2-2-2-2-2-2-2-2-2-2-2-0-0-0-0-0-0-0-0-0-0-0-0-0-0-0-0--------|
E|----0-0-0-0-0-0-0-0--------------------------------------------------------|

e|---------------------------------------------------------------------------|
B|---------------------------------------------------------------------------|
G|----6-6-6-6-6-6-6-6-4-4-4-4-4-4-4-4-2-2-2-2-2-2-2-2-2----------------------|
D|----6-6-6-6-6-6-6-6-4-4-4-4-4-4-4-4-2-2-2-2-2-2-2-2-2----------------------|
A|----4-4-4-4-4-4-4-4-2-2-2-2-2-2-2-2-0-0-0-0-0-0-0-0-0----------------------|
E|---------------------------------------------------------------------------|


Bridge:

e|---------------------------------------------------------------------------|
B|---------------------------------------------------------------------------|
G|--------------------2---2---2---2-------------------4---4---4---4----------|
D|----4---4---4---4---2---2---2---2---2---2---2---2---4---4---4---4----------|
A|----4---4---4---4---0---0---0---0---2---2---2---2---2---2---2---2----------|
E|----2---2---2---2-------------------0---0---0---0--------------------------|

e|---------------------------------------------------------------------------|
B|---------------------------------------------------------------------------|
G|--------------------2-2-2-2-2-2-2-2-7-7-7-7-7-7-7-7-4-4-4-4-4-4-4-4--------|
D|----4-4-4-4-4-4-4-4-2-2-2-2-2-2-2-2-7-7-7-7-7-7-7-7-4-4-4-4-4-4-4-4--------|
A|----4-4-4-4-4-4-4-4-0-0-0-0-0-0-0-0-5-5-5-5-5-5-5-5-2-2-2-2-2-2-2-2--------|
E|----2-2-2-2-2-2-2-2--------------------------------------------------------|
Mute: * * * * * * * * * * * * * * * * * * * * * 


Order:
Riff (Both Guitars): x2
Verse: x2
Pre-Chorus: x1
Chorus: x1
Riff (Both Guitars): x2
Verse: x2
Pre-Chorus: x1
Chorus: x1
Riff (Both Guitars): x2
Bridge: x2
Chorus: x2                                 (Rest for the first line of the
                                            first time through and continue
                                            to play the last chord instead 
                                            of cutting off on both times)
Riff (Both Guitars): x4
(End by hammering on and pulling off the 
2nd fret of the high e string a few times)
Tap to rate this tab
# A B C D E F G H I J K L M N O P Q R S T U V W X Y Z