Song name
# A B C D E F G H I J K L M N O P Q R S T U V W X Y Z

Bowling For Soup - Spanish Harlem tab

-------------------------------------------------------------------------------
			Spanish Harlem - Bowling For Soup
-------------------------------------------------------------------------------

Tabbed by: Matt
Email: m_mostovac

Tuning: Standard


e|------------------------|
B|------------------------|
G|------------------------|
D|-3--------------x-x-x-x-|
A|-3--(let-ring)--x-x-x-x-|
E|-1--------------x-x-x-x-|

e|---------------------------------|---------------------------------|
B|---------------------------------|---------------------------------|
G|---------5-5-5-5---------5-5-5-5-|---------5-5-5-5---------5-5-5-5-|
D|-3-3-3-3-5-5-5-5-3-3-3-3-5-5-5-5-|-3-3-3-3-5-5-5-5-3-3-3-3-5-5-5-5-|
A|-3-3-3-3-3-3-3-3-3-3-3-3-3-3-3-3-|-3-3-3-3-3-3-3-3-3-3-3-3-3-3-3-3-|
E|-1-1-1-1---------1-1-1-1---------|-1-1-1-1---------1-1-1-1---------|
  "there"  "rose"  "harlem"          "a red" "up in" "harlem"

e|----------------------------------|
B|----------------------------------|
G|-3-3-3-3-3-3-3-3-3-3-3-3-3-3-3-3--|
D|-3-3-3-3-3-3-3-3-3-3-3-3-3-3-3-3--|
A|-1-1-1-1-1-1-1-1-1-1-1-1-1-1-1-1--|
E|----------------------------------|
   "Its a Special one...gleaming"

e|-----------------|---------------------------|
B|-----------------|---------------------------|
G|-----------------|-5-5-5-5-5-5-5-5-5-5-5-5-5-|
D|-3-3-3-3-3-3-3-3-|-5-5-5-5-5-5-5-5-5-5-5-5-5-|
A|-3-3-3-3-3-3-3-3-|-3-3-3-3-3-3-3-3-3-3-3-3-3-|
E|-1-1-1-1-1-1-1-1-|---------------------------|
                    "Its Growing...dreaming"

e|-------------------------------------------------|
B|-------------------------------------------------|
G|---------5-5-5-5---------5-5-5-5---------5-5-5-5-|
D|-3-3-3-3-5-5-5-5-3-3-3-3-5-5-5-5-3-3-3-3-5-5-5-5-|
A|-3-3-3-3-3-3-3-3-3-3-3-3-3-3-3-3-3-3-3-3-3-3-3-3-|
E|-1-1-1-1---------1-1-1-1---------1-1-1-1---------|
  "la la la la la la la la la la la la la la la la"
                  "there" "rose"  "harlem"

e|--------------|
B|--------------|
G|--------------|
D|-3------------|
A|-3-(let-ring)-|
E|-1------------|
     "...yeah"

Thats sounds pretty much right to me exept the intro part isnt here. Ill work on it and 
get it posted, thanks. Please rate and comment!!


LYRICS:

There is a rose in Spanish Harlem
A red rose up in Spanish Harlem
It is a special one, it's never seen the sun
It only comes out when the moon is on the run
And all the stars are gleaming
It's growing in the street right up through the concrete
It's soft and sweet and dreamin'

(la la la la la la la la)
There is a rose in Spanish Harlem
(la la la la la la la la)
There is a rose in Spanish Harlem
(la la la la la la la la)
There is a rose in Spanish Harlem
(la la la la la la la la)
There is a rose in Spanish Harlem
Yeah
------------------------------------------------------------------------------
Tap to rate this tab
 
# A B C D E F G H I J K L M N O P Q R S T U V W X Y Z