Song name
# A B C D E F G H I J K L M N O P Q R S T U V W X Y Z

Bowling For Soup - Pictures He Drew tab

i love this song! just had to tab it. enjoy the tab guys:) rate and comment plzz!!

Tuning: standard

intro

e|-------------------------------------------------------------------------|
B|-------------------------------------------------------------------------|
G|9-9-9-9---------6-6-66-7-7-7-7-9-9-9-9---------6-6-66-7-7-7-7------------|
D|9-9-9-9-9-9-9-9-6-6-66-7-7-7-7-9-9-9-9-9-9-9-9-6-6-66-7-7-7-7------------|
A|7-7-7-7-9-9-9-9-4-4-44-5-5-5-5-7-7-7-7-9-9-9-9-4-4-44-5-5-5-5------------|
E|--------7-7-7-7------------------------7-7-7-7---------------------------|

Verse

e|-------------------------------------------------------------------------|
B|-------------------------------------------------------------------------|
G|---------44444444--2222222222222222--------------------------------------|
D|22222222-44444444--2222222222222222--------------------------------------|
A|22222222-22222222--0000000000000000--------------------------------------|
E|00000000-----------------------------------------------------------------|

(Intro)

(verse)

chorus (play x2)

e|-------------------------------------------------------------------------|
B|-------------------------------------------------------------------------|
G|--------4-4-4-4------------------------4-4-4-4-6-6-66-7-7-7-7------------|
D|2-2-2-2-4-4-4-4-7-7-7-7-7-7-7-2-2-2-2-4-4-4-4-6-6-66-7-7-7-7------------|
A|2-2-2-2-2-2-2-2-7-7-7-7-7-7-7-2-2-2-2-2-2-2-2-4-4-44-5-5-5-5------------|
E|0-0-0-0---------5-5-5-5-5-5-5-0-0-0-0-----------------------------------|


(Verse)


chorus (last part changed)

e|-------------------------------------------------------------------------|
B|-------------------------------------------------------------------------|
G|--------4-4-4-4------------------------4-4-4-4-6-6-66-7-7-7-7------------|
D|2-2-2-2-4-4-4-4-7-7-7-7-7-7-7-2-2-2-2-4-4-4-4-6-6-66-7-7-7-7------------|
A|2-2-2-2-2-2-2-2-7-7-7-7-7-7-7-2-2-2-2-2-2-2-2-4-4-44-5-5-5-5------------|
E|0-0-0-0---------5-5-5-5-5-5-5-0-0-0-0-----------------------------------|

e|-------------------------------------------------------------------------|
B|-------------------------------------------------------------------------|
G|--------4-4-4-4------------------------4-4-4-4-6-6-66-5-5-5-5------------|
D|2-2-2-2-4-4-4-4-7-7-7-7-7-7-7-2-2-2-2-4-4-4-4-6-6-66-5-5-5-5------------|
A|2-2-2-2-2-2-2-2-7-7-7-7-7-7-7-2-2-2-2-2-2-2-2-4-4-44-3-3-3-3------------|
E|0-0-0-0---------5-5-5-5-5-5-5-0-0-0-0-----------------------------------|



bridge

e|-------------------------------------------------------------------------|
B|-------------------------------------------------------------------------|
G|---------44444444---------------------------44444444---------------------|
D|77777777-44444444-2222222222222222-77777777-44444444-2222222222222222----|
A|77777777-22222222-2222222222222222-77777777-22222222-2222222222222222----|
E|55555555----------0000000000000000-55555555----------0000000000000000----|

e|-------------------------------------------------------------------------|
B|-------------------------------------------------------------------------|
G|---------44444444-55555555-77777777--------------------------------------|
D|77777777-44444444-55555555-77777777--------------------------------------|
A|77777777-22222222-33333333-55555555--------------------------------------|
E|55555555-----------------------------------------------------------------|

(Lead) (chorus is played in background)

e||--------------------------------------------------|
B||--5--0--7--0--9-9-7-7-5-5-7-7-9-9-7-7-5-5-7-7-----|
G||--------------------------------------------------|  ( x2 )
D||--------------------------------------------------|
A||--------------------------------------------------|
E||--------------------------------------------------|

(chorus)


outro

e|--------------------------------------------|
B|--------------------------------------------|
G|--------4-4-4-4-6-6-6-6-7-------------------|
D|2-2-2-2-4-4-4-4-6-6-6-6-7-------------------|
A|2-2-2-2-2-2-2-2-4-4-4-4-5-------------------|
E|0-0-0-0-------------------------------------|
  some.   just.   away
Tap to rate this tab
 
# A B C D E F G H I J K L M N O P Q R S T U V W X Y Z