Guitaretab - guitar tabs
Song name
# A B C D E F G H I J K L M N O P Q R S T U V W X Y Z

Bowling For Soup - Star Song tab

Star Song  Bowling For Soup
Key Of A Major

Main Riff (w/ corresponding verse chords)
   A    E       A      E         D         A      E
E|------------------------------------------------------------------------------|
B|-2------------3-2--------------2-3-2-----3-2----------------------------------|
G|---2-------4------2--------4---------2-------2--4--2-1-----1------------------|
D|--------2---------------2-------------------------------4---------------------|
A|-----4---------------4--------------------------------------------------------|
E|------------------------------------------------------------------------------|

Intro and Verse Bass Line
E|--------------------------------------------------------------------|
B|--------------------------------------------------------------------|
G|--------------------------------------------------------------------|
D|--7--7-7-7-7--2--2-2--2-2--7--7-7--7-7--2--2-2--2-2-----------------|
A|--7--7-7-7-7--2--2-2--2-2--7--7-7--7-7--2--2-2--2-2-----------------|
E|--5--5-55-5--0--0-0--0-0--5--5-5--5-5--0--0-0--0-0-----------------|

E|--------------------------------------------------------------------------|
B|--------------------------------------------------------------------------|
G|-7-7-7-7-------------9-9-9-9-9-9-9-9--------------------------------------|
D|-7-7-7-7---7-7-7-7---9-9-9-9-9-9-9-9--------------------------------------|
A|-5-5-5-5---7-7-7-7---7-7-7-7-7-7-7-7--------------------------------------|
E|-----------5-5-5-5--------------------------------------------------------|

Chorus 1:                                 x2
E|----------------------------------------------------------------------|
B|----------------------------------------------------------------------|
G|--------------------7-7-7-7--7-7-7-7--|---------------9-9-9-9---------|
D|--7-7-7-7--2-2-2-2--7-7-7-7--7-7-7-7--|--7-7-7-7------9-9-9-9---------|
A|--7-7-7-7--2-2-2-2--5-5-5-5--5-5-5-5--|--7-7-7-7------7-7-7-7---------|
E|--5-5-5-5--0-0-0-0--------------------|--5-5-5-5----------------------|
[ Tab from: http://www.guitaretab.com/b/bowling-for-soup/166032.html ]
Verse
E|------------------------------------------------------------------------|
B|--2----2----2--0----0----0----------------------------------------------|
G|----2----2-------1----1-------------------------------------------------|
D|------2----2-------2----2-----------------------------------------------| x2
A|-0----------------------------------------------------------------------|
E|--------------0---------------------------------------------------------|

(the switch back to the normal chorus)

Chorus 2:                                x2
E|-----------------------------------------------------------------------------|
B|-----------------------------------------------------------------------------|
G|--------------------7-7-7-7--7-7-7-7--|--------------------4-4-4-4-9-9-9-9---|
D|--7-7-7-7--2-2-2-2--7-7-7-7--7-7-7-7--|--7-7-7-7--2-2-2-2--4-4-4-4-9-9-9-9---|
A|--7-7-7-7--2-2-2-2--5-5-5-5--5-5-5-5--|--7-7-7-7--2-2-2-2--2-2-2-2-7-7-7-7---|
E|--5-5-5-5--0-0-0-0--------------------|--5-5-5-5--0-0-0-0--------------------|

(Straight into bridge)

                         X6
G|----------------------|
D|--4-4-4-4--7-7-7-7----|
A|--4-4-4-4--7-7-7-7----|
E|--2-22-2--5-5-5-5----|

LAST CHORUS'S:

GUITAR PART no bass
   A2            E
E|------------------------------------------------------------------------|
B|--0----0----0--0----0----0----------------------------------------------|
G|----2----2-------1----1-------------------------------------------------|
D|------2----2-------2----2-----------------------------------------------| x2
A|-0----------------------------------------------------------------------|
E|--------------0---------------------------------------------------------|
  "you're a star" (then switch back to the normal chorus's as shown above"

END:
    A
E|-----------------------------------------------------------------------|
B|-----------------------------------------------------------------------|
G|-----------------------------------------------------------------------|
D|--7--------------------------------------------------------------------|
A|--7--------------------------------------------------------------------|
E|--5--------------------------------------------------------------------|
Related for Star Song tab