Song name
# A B C D E F G H I J K L M N O P Q R S T U V W X Y Z

Boxcar Racer - I Feel So chords

Highlighted       Show chord diagrams
Boxcar Racer
I Feel So
Boxcar Racer
2002 MCA Records
Submitted by: paramore_fans@yahoo.com

Key: G then E

Chords used:
G -     320033
D/F# -  2x023x
Em -    022000
E -     022100
B/Eb -  x698xx
C#m -   x46654
B -     x24442
D -     xx0232


Intro:

Piano:
e|--------7----8------7--------8-----7------5-----2--3-|
B|-8--7-6----7----5-8---7--8-----7------5-----2--------|
G|---------------------------7-----7------7-----3------|
D|-----------------------------------------------------|
A|-----------------------------------------------------|
E|-----------------------------------------------------|

Guitar: Acoustic
    G     D/F#   Em    D/F#
e|------|------|-----|------|
B|----0-|---1--|---0-|------|
G|----0-|---0--|---0-|----2-|
D|----0-|---0--|---2-|----0-| x2
A|------|------|-----|------|
E|-3----|-2----|-0---|-2--2-|

Guitar: Distortion
D/F#-G-D/F#-G-D-- x20-| Em(hold)
D/F#-G-D/F#-G-D-------| x4


Verse 1:
G        D/F#          Em   D
Sometimes I wish I was brave
              G      D/F#
I wish I was stronger
             Em      D
Wish I could feel no pain
           G    D/F#
Wish I was young    wish I was
Em D/F#             G     D/F#
shy    I wish I was honest
             Em      D
I wish I was you not I


Chorus:
        E
Cause I feel so mad
  B/Eb
I feel so angry
  C#m
I feel so callused
   B/Eb
So lost confused drop
       E
dead I feel so cheap
   B/Eb
So used unfaithful
C#m
Let's start over
B/Eb
Let's start over


Interlude: D/F#-G-D/F#-G-D-- x4


Verse 2:
G        D/F#
Sometimes    I wish
       Em  D/F#
I was smart
              G
I wish I made cures
   D/F#    Em     D/F#
for    how people are
             G    D/F#
I wish I had power    I
             Em  D/F#
wish I could lead
               G
I wish I could change the
D/F#      Em      D/F#
world for you and me


(Repeat Chorus)


Interlude: D/F#-G-D/F#-G-D-- x16


Breakdown: B-- x4


(Repeat Chorus twice)


Outro:
E(hold)
Let's start over
Tap to rate this tab
 
# A B C D E F G H I J K L M N O P Q R S T U V W X Y Z