Boy And Bear - Rabbit Song tab

Artist: Boy & Bear
Song: Rabbit Song
EP: With Emperor Antartica

My space:
http://www.myspace.com/boyandbearmusic

iTunes:
http://itunes.apple.com/au/artist/boy-bear/id331665629

Firstly The acoutic guitar

Standard Tuning

Capo at 4th - all tab and chords are relative to the capo

Intro riff X4

e:-------------------------------------------------|
B:-0h1----1------0--------------0----1---0---------|
G:-----------2--------0--0h2-----------------2-----|
D:-----2-----------0----------0----0----0----------|
A:-------------------------------------------------|
E:-------------------------------------------------|

Second riff

  Am (repeat 4 times)

e:(0)---(0)-------|
B:-0h1---1--------|
G:---------2------|
D:-----2----------|
A:----------------|
E:----------------|


Verse

  Am (repeat 4x)       F (repeat 4x)     D (repeat 4x)

e:(0)---(0)-------------(0)-(0)---------(0)-(0)----|
B:-0h1---1---------------1---1-----------3---3-----|
G:---------2-------------------2---------------2---|
D:-----2-------------------3---------------0-------|
A:-------------------------------------------------|
E:-------------------------------------------------|


 Then Second riff 4 times

 Then Verse again

 Then Intro Riff 2 times.


Build up bit

 Am (with variations though, hammer on 2nd and 3rd strings in different rhythms to form Am)

 Am
 I'll keep my soul my heads not coming back...

 Am (with varations again)

 Bridge

 (lead bit starts here)
 C		       D

 I'll keep my soul my heads not coming back...
 C                     D

 Am		       D
 C		       D
 Am		       D
 C		       D


 Pre chorus

 I don't intend...
 Am		       C
 F		       D
 Am		       C
 F		       D

 Chorus (until end)

 Am		 C
 D


Lead parts - No capo

 During first verse (~37 secs in), just repeat that a few times.

e:---4----4---------|
B:-5-5-5--5---------|
G:-6-6-6--6---------|
D:-6-6-6--6---------|
A:-4---4------------|
E:------------------|


Just after the verse (~55 secs in)

e:-9--9---9----7---7-7---9---9--7--7---|
B:-9--9---9----7---7-7---11--9--9--7---|
G:-9--9---9----8---8-8---11--9--9--8---|
D:-11-11--11---9---9-9---11--11-9--9---|
A:-------------------------------------|
E:-------------------------------------|

Couldn't be bothered doing the rest of the lead, there's not much of it and
it's not very difficult...someone can fill in the blanks.

Any comments or corrections
nick_cam1980@yahoo.com
Tap to rate this tab
 
# A B C D E F G H I J K L M N O P Q R S T U V W X Y Z