Song name
# A B C D E F G H I J K L M N O P Q R S T U V W X Y Z

Boyce Avenue - Babylon tab

For any questions, email me at Asomeone50@gmail.com

Boyce Avenue - Babylon (David Gray)

This tab is based off of Alejandro's performance at this webpage:
http://www.youtube.com/watch?v=AUJH-bAVB0w

Tuning: Standard
Capo: 1st fret

Intro:

|--------2---2---------------------------------------|
|-----------------------2---3--------------------0---|
|----0^2---2-------------------------0-------------2-|
|-0-----------------0^2---2------------2-------4-----|
|----------------0---------------0^2-----2---4-------|
|------------------------------0-----------2---------|

|--------2---2-------------------------------------|
|-----------------------2---3--------------------2-|
|----0^2---2-------------------------0---------2---|
|-0-----------------0^2---2------------2-----2-----|
|----------------0---------------0^2-----2-0-------|
|------------------------------0-------------------|

Verses:

|------0-----------------------|
|------2^3^2---2^3---------3---|
|----2---------------4-------4-|
|------------------------0-----|
|------------------------------|
|-2----------2-----3---3-------|

Pre-chorus:

|-2--0--0--0--2--0--0--x-3-2-|
|-3--2--0--0--3--2--0--3-3-3-|
|-2--2--0--2--2--2--0--0-0-0-|
|-0--2--2--4--0--2--2--0-0-0-|
|----0--2--4-----0--2--2-2-2-|
|-------0--2--------0--3-3-3-|

Chorus:

|-2--0--0--0-|
|-3--2--0--2-|
|-2--2--0--2-|
|-0--2--2--2-|
|----0--2--0-|
|-------0----|

Turnaround/outro:

|------0-----------------------|
|------2^3^2---2^3---------3---|
|----2---------------4-------4-|
|-0----------0-----------0-----|
|------------------------------|
|------------------3---3-------|
Tap to rate this tab
# A B C D E F G H I J K L M N O P Q R S T U V W X Y Z