Song name
# A B C D E F G H I J K L M N O P Q R S T U V W X Y Z

Boyce Avenue - I Knew You Were Trouble tab

I Knew You Were Trouble Cover by Boyce Avenue
Tabbed By:VdR_Ace47
Follow Me on Twitter VdR_Ace47

JUST LISTEN TO THE SONG TO KNOW THE STRUMMING PATTERN

*INTRO
e|------------------------------------------------|
B|------------------------------------------------|
G|---12-------------------------------------------|
D|---12-------------------------------------------|
A|---10-------------------------------------------|
E|------------------------------------------------|

e|----x-------x-------x--------x------------------|
B|----x-------x-------x--------x------------------|
G|---12-------x-------x--------x------------------|
D|---12------12------14-------10------------------|
A|---10------12------14-------10------------------|
E|----x------10------12-------8-------------------|
*VERSE*PRE-CHORUS

e|---x-------x-------x---------x------------------|
B|---x-------x-------x---------x------------------|
G|---x-------x-------x--------12------------------|
D|--14------10------12--------12------------------|
A|--14------10------12--------10------------------|
E|--12------8-------10---------x------------------|
*CHORUS


e|---5-------7-------5---------5-----8-----5------|
B|---5-------8-------5---------5-----8-----5------|
G|---5-------9-------5---------7-----9-----7------|
D|---7-------9-------7---------7----10-----7------|
A|---7-------7-------7---------7----10-----7------|
E|---5-------7-------5---------5-----8-----5------|
*BRIDGE
Tap to rate this tab
 
# A B C D E F G H I J K L M N O P Q R S T U V W X Y Z