Song name
# A B C D E F G H I J K L M N O P Q R S T U V W X Y Z

Boyce Avenue - Corre tab

¡Corre! - Boyce Avenue
Tabbed by: Kingsley

Tuning: Whole Step Down

Intro/Verse:
e|---------------------------------|
B|---------------------------------|
G|-0---0-2-4---4-2-0---0-2-4---4-2-|
D|-0-0-----5-5-----2-0-----5-5-----| x3
A|---------------------------------|
E|-3-----2-3-----2-0-----2-0-----2-|

Pre-Chorus:
e|----------------------------------------------|
B|-------3------------------------3-------5-5s7-|
G|-----0-----0-2s12-11-9-11-----0-------7-------|
D|---2-----0------------------2-----0-4---------|
A|-3------------------------3-------------------|
E|----------------------------------------------|

Chorus:
        Em7                  Cadd9
Así que corre corre corre corazón
        G                                 D Dsus4 D Dsus2 D
De los dos tu siempre fuiste el mas veloz
     Em7                      Cadd9
Toma todo lo que quieras pero vete ya
         Am                D       Dsus4 D Dsus2 D
que mis lágrimas jamás te voy a dar
        Cadd9                    G
Así que corre como siempre no mires atrás
             Em          D              G
lo has hecho ya y la verdad me da igual

G   D   G   D
Em7 D   Em7 D

G                  D
Ya viví esta escena
G                    D   Em7      D  Em7  D
Y con mucha pena te digo no, conmigo no
G             D  G                   
Di lo que podía, pero a media puerta
D     Em7   D       Em7
Se quedó    mi corazón

Pre-Chorus:
Cadd9    D                    D Dsus4 D Dsus2 D
Tuuu.... libreto de siempre tan repetido
Cadd9    D
Yaaa  no no te queda bien

Chorus:
        Em7                  Cadd9
Así que corre corre corre corazón
        G                                 D Dsus4 D Dsus2 D
De los dos tu siempre fuiste el mas veloz
     Em7                      Cadd9
Toma todo lo que quieras pero vete ya
         Am                D       Dsus4 D Dsus2 D
que mis lágrimas jamás te voy a dar
        Cadd9                    G
Así que corre como siempre no mires atrás
             Em          D              G
lo has hecho ya y la verdad me da igual

Solo:
G   D   G   D
Em7 D   Em7 D
G   D

Cadd9 D Dsus4 D Dsus2 D
Cadd9 D

Pre-Chorus:
e|----------------------------------------------|
B|-------3------------------------3-------5-5s7-|
G|-----0-----0-2s12-11-9-11-----0-------7-------|
D|---2-----0------------------2-----0-4---------|
A|-3------------------------3-------------------|
E|----------------------------------------------|

Chorus:
        Em7                  Cadd9
Así que corre corre corre corazón
        G                                 D Dsus4 D Dsus2 D
De los dos tu siempre fuiste el mas veloz
     Em7                      Cadd9
Toma todo lo que quieras pero vete ya
         Am                D       Dsus4 D Dsus2 D
que mis lágrimas jamás te voy a dar
          Em7                         Cadd9  
Han sido tantas despedidas que en verdad
     G                           D Dsus4 D Dsus2 D
Dedicarte un verso más está de más
        Cadd9                       G
Así que corre como siempre que no iré detrás

Outro:
             Em          D              G
lo has hecho ya y la verdad me da igual
             Em          D              G
Lo has hecho ya y la verdad me da igual
             Em             D               G
Lo has hecho ya, pero al final, me da igual
Tap to rate this tab
# A B C D E F G H I J K L M N O P Q R S T U V W X Y Z