Song name
# A B C D E F G H I J K L M N O P Q R S T U V W X Y Z

Boyce Avenue - Payphone tab

-------------------------------------------------------------------------------
                             PAYPHONE - Boyce Avenue
-------------------------------------------------------------------------------
Tabbed by: arcsi007
E-mail: arcsi95@hotmail.com

Tuning: Standard

This is my first tab. For timing watch video: http://youtu.be/9lejDw3dtsw?t=2m37s

e|----10---------------------------------------------------------------------|
B|----------------13--12--12s10--10--8-----8~--------------------------------|
G|------------12------------------------9---------9s7------------------------|
D|---------------------------------------------9-----------------------------|
A|---------------------------------------------------------------------------|
E|---------------------------------------------------------------------------|

e|---------------------------------------------------------------------------|
B|------------------15--15-15-14---10--10-10-8-7--7-7-7----------------------|
G|-----------12h14---------------------------------------8s10-(-10-10s-)-----|
D|----12h14------------------------------------------------------------------|
A|---------------------------------------------------------------------------|
E|---------------------------------------------------------------------------|


************************************

| /   slide up
| \   slide down
| h   hammer-on
| p   pull-off
| ~   vibrato
| +   harmonic
| x   Mute note
| b   Bend
| pb  Pre-bend
| br  Bend release
| pbr Pre-bend release
| brb Bend release bend

************************************

Tap to rate this tab
 
# A B C D E F G H I J K L M N O P Q R S T U V W X Y Z