Song name
# A B C D E F G H I J K L M N O P Q R S T U V W X Y Z

Boys Like Girls - Two Is Better Than One tab

this is EXACTLY how Boys Like Girls play the song, and yes the TUNING is Open C, but with a
little mix, instead of C G C G C E it's C G C E C E.
It took me a while to tab it perfectly watching videos
from these guys on Youtube. Have fun and rate.

Intro

E|----------------------------------|
C|--------0-------0-------0-------0-|
E|----3-------3-------3-------3-----|
C|--0---0-------0-------0-------0---|
G|--0-------0-------0-------0-------|
C|--0-------------------------------|

Verse x2

E|------------------------------------------------------------------|
C|--------0-------0-------0-------0-------0-------0-------0-------0-|
E|----3-------3-------3-------3-------7-------7-------7-------7-----|
C|--0---0-------0-------0-------0---9---9-------9-------9-------9---|
G|--0-------0-------0-------0-------9-------9-------9-------9-------|
C|--0-------------------------------9-------------------------------|

|------------------------------------------------------------------|
|--------0-------0-------0-------0-------0-------0-------0-------0-|
|----5-------5-------7-------7-------3-------3-------3-------3-----|
|--5---5-------5---7---7-------7---0---0-------0-------0-------0---|
|--5-------5-------7-------7-------0-------0-------0-------0-------|
|--5---------------7---------------0-------------------------------|

Chorus

E|------------------------------------------------------------------|
C|--------0-------0-------0-------0-------0-------0-------0-------0-|
E|----5-------5-------5-------5-------7-------7-------7-------7-----|
C|--5---5-------5-------5-------5---7---7-------7-------7-------7---|
G|--5-------5-------5-------5-------7-------7-------7-------7-------|
C|--5-------------------------------7-------------------------------| x3

then

|---------------------------------------------------------------------|
|--------0-------0-------0-------0-------0-------0-------0-------0----|
|----8-------8-------7-------7-------5-------5-------5-------5--------|
|--9---9-------9---7---7-------7---5---5-------5-------5-------5------|
|--9-------9-------7-------7-------5-------5-------5-------5----------|
|--9---------------7---------------5----------------------------------| x2
                                  (---dont play this second time------|
Verse x2

E|------------------------------------------------------------------|
C|--------0-------0-------0-------0-------0-------0-------0-------0-|
E|----3-------3-------3-------3-------7-------7-------7-------7-----|
C|--0---0-------0-------0-------0---9---9-------9-------9-------9---|
G|--0-------0-------0-------0-------9-------9-------9-------9-------|
C|--0-------------------------------9-------------------------------|

|------------------------------------------------------------------|
|--------0-------0-------0-------0-------0-------0-------0-------0-|
|----5-------5-------7-------7-------3-------3-------3-------3-----|
|--5---5-------5---7---7-------7---0---0-------0-------0-------0---|
|--5-------5-------7-------7-------0-------0-------0-------0-------|
|--5---------------7---------------0-------------------------------|

Chorus

E|--0--0-0-0-0--0-0--0-0-0-0-0--0-0-0-0--0-0--0-0-0-0-|
C|--0--0-0-0-0--0-0--0-0-0-0-0--0-0-0-0--0-0--0-0-0-0-|
E|--5--5-5-5-5--5-5--5-5-5-5-7--7-7-7-7--7-7--7-7-7-7-|
C|--5--5-5-5-5--5-5--5-5-5-5-7--7-7-7-7--7-7--7-7-7-7-|
G|--5--5-5-5-5--5-5--5-5-5-5-7--7-7-7-7--7-7--7-7-7-7-|
C|--5--5-5-5-5--5-5--5-5-5-5-7--7-7-7-7--7-7--7-7-7-7-| x3

then

|--0--0-0-0-0--0-0--0-0-0-0-0--0-0-0-0--0-0--0-0-0-0-|
|--0--0-0-0-0--0-0--0-0-0-0-0--0-0-0-0--0-0--0-0-0-0-|
|--8--8-8-8-8--7-7--7-7-7-7-5--5-5-5-5--5-5--5-5-5-5-|
|--9--9-9-9-9--7-7--7-7-7-7-5--5-5-5-5--5-5--5-5-5-5-|
|--9--9-9-9-9--7-7--7-7-7-7-5--5-5-5-5--5-5--5-5-5-5-|
|--9--9-9-9-9--7-7--7-7-7-7-5--5-5-5-5--5-5--5-5-5-5-| x2
                            ->(starts bridge)*

Bridge *(note that the bridge starts on the chorus in the middle of the
second part the second time it's played)

E|--0--0-0-0-0--0-0--0-0-0-0--0-0--0-0-0-0--0-0--0-0-0/0-0-|
C|--0--0-0-0-0--0-0--0-0-0-0--0-0--0-0-0-0--0-0--0-0-0/0-0-|
E|--5--5-5-5-5--5-5--5-5-5-5--7-8--8-8-8-8--8-8--8-7-7/5-5-|
C|--5--5-5-5-5--5-5--5-5-5-5--7-9--9-9-9-9--9-9--9-7-7/5-5-|
G|--5--5-5-5-5--5-5--5-5-5-5--7-9--9-9-9-9--9-9--9-7-7/5-5-|
C|--5--5-5-5-5--5-5--5-5-5-5--7-9--9-9-9-9--9-9--9-7-7/5-5-|

|--0-0-0-0--0-0--0-0-0-0-0--0-0-0-0--0-0--0-0-0-0-0--0-0-0-0--0-0--0-0-0-0--|
|--0-0-0-0--0-0--0-0-0-0-0--0-0-0-0--0-0--0-0-0-0-0--0-0-0-0--0-0--0-0-0-0--|
|--5-5-5-5--5-5--5-5-5-5-2--2-2-2-2--2-2--2-2-2-2-7--7-7-7-7--7-7--7-7-7-7--|
|--5-5-5-5--5-5--5-5-5-5-2--2-2-2-2--2-2--2-2-2-2-7--7-7-7-7--7-7--7-7-7-7--|
|--5-5-5-5--5-5--5-5-5-5-2--2-2-2-2--2-2--2-2-2-2-7--7-7-7-7--7-7--7-7-7-7--|
|--5-5-5-5--5-5--5-5-5-5-2--2-2-2-2--2-2--2-2-2-2-7--7-7-7-7--7-7--7-7-7-7--|
|---------------------------------------------------------------------------|
|--------0-------0-------0-------0-------0-------0-------0-------0----------|
|----3-------3-------3-------3-------7-------7-------7-------7--------------|
|--0---0-------0-------0-------0---9---9-------9-------9-------9------------|
|--0-------0-------0-------0-------9-------9-------9-------9----------------|
|--0-------------------------------9----------------------------------------|

|--0-|
|--0-|
|--5-|
|--5-|
|--5-|
|--5-|

Chorus x2

E|--0--0-0-0-0--0-0--0-0-0-0-0--0-0-0-0--0-0--0-0-0-0-|
C|--0--0-0-0-0--0-0--0-0-0-0-0--0-0-0-0--0-0--0-0-0-0-|
E|--5--5-5-5-5--5-5--5-5-5-5-7--7-7-7-7--7-7--7-7-7-7-|
C|--5--5-5-5-5--5-5--5-5-5-5-7--7-7-7-7--7-7--7-7-7-7-|
G|--5--5-5-5-5--5-5--5-5-5-5-7--7-7-7-7--7-7--7-7-7-7-|
C|--5--5-5-5-5--5-5--5-5-5-5-7--7-7-7-7--7-7--7-7-7-7-| x3

|--0--0-0-0-0--0-0--0-0-0-0-0--0-0-0-0--0-0--0-0-0-0-|
|--0--0-0-0-0--0-0--0-0-0-0-0--0-0-0-0--0-0--0-0-0-0-|
|--8--8-8-8-8--7-7--7-7-7-7-5--5-5-5-5--5-5--5-5-5-5-|
|--9--9-9-9-9--7-7--7-7-7-7-5--5-5-5-5--5-5--5-5-5-5-|
|--9--9-9-9-9--7-7--7-7-7-7-5--5-5-5-5--5-5--5-5-5-5-|
|--9--9-9-9-9--7-7--7-7-7-7-5--5-5-5-5--5-5--5-5-5-5-| x2
                           (dont play this second time)
Outro

E|------------------------------------------------------------------|
C|--------0-------0-------0-------0-------0-------0-------0-------0-|
E|----3-------3-------3-------3-------7-------7-------7-------7-----|
C|--0---0-------0-------0-------0---9---9-------9-------9-------9---|
G|--0-------0-------0-------0-------9-------9-------9-------9-------|
C|--0-------------------------------9-------------------------------|

|--0---------0----------0-|
|--0---------0----------0-|
|--8---------7----------5-|
|--9---------7----------5-|
|--9---------7----------5-|
|--9---------7----------5-|
Tap to rate this tab
# A B C D E F G H I J K L M N O P Q R S T U V W X Y Z