Guitaretab - guitar tabs
Song name
# A B C D E F G H I J K L M N O P Q R S T U V W X Y Z

Boys Like Girls - Love Drunk tab

****************************************************************************
Artist: Boys Like Girls
Song Title: "Love Drunk"
Album: "Love Drunk"
Year: 2009

Tabbed by: aznricyboy (Richie)
Date: June 26, 2009
Email: aznricyboy@yahoo.com
****************************************************************************
Comments: Woot!  Looks like I'll put up the first tab for this song!  This is the date
BLG released the single on their Myspace.  It's not 100% correct (I didn't put in the
guitar part during the chorus, sorry), but when I played the rhythm guitar part, it 
fine.  This is only my second tab, so it wil be somewhat confusing.  Just try to listen
the parts in the song and match it up with the lyrics to get the rhythm.  Enjoy!

P.S: I have a video of me covering it, though I didn't base it completely off this tab.
that the link may be broken in the near future.

http://www.youtube.com/watch?v=vgnozOjLS6A
****************************************************************************
Key:
h = hammer-on
PM = palm mute
x = mute
~ = hold note
\ = slide down
****************************************************************************
TUNING: Drop D with a capo on the first fret.  It's completely optional, but you may
it to play the open D# during the chorus.  If you don't have a capo, simply bar your finger
the first fret wherever you see open chords.  For the final chorus, bar your finger on 
third fret.
****************************************************************************
Intro:

"(Na na na na na na na na na)...."

Guitar 1 (Rhythm)-
Tremelo picking & palm muted.  Do this for a while until the chords come in.
e)----|
B)----|
G)-8--|
D)----|
A)----|
D)----|
PM...

Guitar 1 (Rhythm)-
e)--------------------------------|
B)--------------------------------|
G)--------------------------------|
D)-0~-8-6~-0~-8-66666666-88888888-|
A)-0~-8-6~-0~-8-66666666-88888888-|
D)-0~-8-6~-0~-8-66666666-88888888-|
"(Hey!  Hey!  Hey!  Hey!)...."

Guitar 2 (Lead)-
e)--------11----11----11----|
B)-8h9h11----11----11----11-|
G)--------------------------|
D)--------------------------| x4
A)--------------------------|
D)--------------------------|
"(Hey!  Hey!  Hey!  Hey!)...."

Verse:

Guitar 1 & 2-
e)------------------------------------------------------------------------|
B)------------------------------------------------------------------------|
G)------------------------------------------------------------------------|
D)-0000000000000000-66666666666666666-3333333333333333-66666666666666-888-|
A)-0000000000000000-66666666666666666-3333333333333333-66666666666666-888-|
D)-0000000000000000-66666666666666666-3333333333333333-66666666666666-888-|
PM....................................................................
"Top down in the summer sun
The day we met was like a hit and run
And I still taste it on my tongue (Taste it on my tongue)...."

Guitar 1 & 2-
e)----------------------------------------------------------------|
B)----------------------------------------------------------------|
G)----------------------------------------------------------------|
D)-0000000000000000-66666666666666666-3333333333333333-88888888-8-|
A)-0000000000000000-66666666666666666-3333333333333333-88888888-8-|
D)-0000000000000000-66666666666666666-3333333333333333-88888888-8-|
PM.....................................................
"The sky was burning up like fireworks
You made me want you oh so bad it hurts
But girl, in case you haven't heard...."

Chorus:

Guitar 1 & 2-
e)-------------------------------------|
B)-------------------------------------|
G)-55555555----------------------------|
D)-55555555-66666666-00000000-88888888-| x2
A)-33333333-66666666-00000000-88888888-|
D)----------66666666-00000000-88888888-|
"I used to be love drunk
But now I'm hungover
I love you forever
Forever is over
We used to kiss all night
Now it's just a barfight
So just call me crazy
Say hello then goodbye (Okay!)...."

Guitar 1 & 2-
e)-------------------------------------------------------------|
B)-------------------------------------------------------------|
G)-------------------------------------------------------------|
D)-66666666-88888888-(10)(10)(10)(10)(10)(10)(10)(10)-88888888-|
A)-66666666-88888888-(10)(10)(10)(10)(10)(10)(10)(10)-88888888-|
D)-66666666-88888888-(10)(10)(10)(10)(10)(10)(10)(10)-88888888-|
"There's just one thing (Okay!)
That would make me say...."

Guitar 1 & 2-
e)------------------------------|
B)------------------------------|
G)-55555555---------------------|
D)-55555555-66666666-00000000-8-|
A)-33333333-66666666-00000000-8-|
D)----------66666666-00000000-8-|
"I used to be love drunk
But now I'm hungover
I love you forever
But now it's over...."

Fill:

Guitar 1 (Rhythm)-
e)-------------------------------------|
B)-------------------------------------|
G)-------------------------------------|
D)-000000000000000000-6666666666666666-|
A)-000000000000000000-6666666666666666-|
D)-000000000000000000-6666666666666666-|
"(Hey!  Hey!  Hey!  Hey!  Hey!  Hey!  Hey!  Hey!)...."

Guitar 2 (Lead)-
e)--------11----11----11----|
B)-8h9h11----11----11----11-|
G)--------------------------|
D)--------------------------| x2
A)--------------------------|
D)--------------------------|
"(Hey!  Hey!  Hey!  Hey!  Hey!  Hey!  Hey!  Hey!)...."

Verse:

Guitar 1 (Rhythm)-
e)------------------------------------------------------------------------|
B)------------------------------------------------------------------------|
G)------------------------------------------------------------------------|
D)-0000000000000000-66666666666666666-3333333333333333-66666666666666-888-|
A)-0000000000000000-66666666666666666-3333333333333333-66666666666666-888-|
D)-0000000000000000-66666666666666666-3333333333333333-66666666666666-888-|
PM....................................................................
"Hot sweat and blurry eyes
We're spinning on a roller coaster ride
With the world stuck in black and white...."

Guitar 2 (Lead)-
Play this little riff when Guitar 1 strums the A#/Bb chord at the end of that measure.
Guitar 1 & 2-
e)--------|
B)-8b9r8--|
G)------8-|
D)--------|
A)--------|
D)--------|

Guitar 1 (Rhythm)-
e)----------------------------------------------------------------|
B)----------------------------------------------------------------|
G)----------------------------------------------------------------|
D)-0000000000000000-66666666666666666-3333333333333333-88888888-8-|
A)-0000000000000000-66666666666666666-3333333333333333-88888888-8-|
D)-0000000000000000-66666666666666666-3333333333333333-88888888-8-|
PM....................................................
"You drove me crazy every time we touched
Now I'm so broken that I can't get up
Oh girl, you make me such a rush...."

Guitar 2 (Lead)-
Paul could be playing harmonics on the D#s/Ebs here.  I'm not sure.  Not sure about the
either.
e)------------------------------------------------------------------|
B)---------------------------------------8b9r8----------------------|
G)-8xx-8xx-8x-8xx-8xx-8x-8xx-8xx-8x-8xx-8-----8xx-8xx-8x-8xx-8xx-8x-|
D)------------------------------------------------------------------|
A)------------------------------------------------------------------|
D)------------------------------------------------------------------|
"You drove me crazy every time we touched
Now I'm so broken that I can't get up
Oh girl, you make me such a rush...."

Guitar 2 (Lead)-
e)------------|
B)------------|
G)------------|
D)-88888888-8-|
A)-88888888-8-|
D)-88888888-8-|
"Oh girl, you make me such a rush...."

Chorus:
[ Tab from: http://www.guitaretab.com/b/boys-like-girls/189607.html ]
Guitar 1 & 2-
e)-------------------------------------|
B)-------------------------------------|
G)-55555555----------------------------|
D)-55555555-66666666-00000000-88888888-| x2
A)-33333333-66666666-00000000-88888888-|
D)----------66666666-00000000-88888888-|
"I used to be love drunk
But now I'm hungover
I love you forever
Forever is over
We used to kiss all night
Now it's just a barfight
So just call me crazy
Say hello then goodbye (Okay!)...."

Guitar 1 & 2-
e)-------------------------------------------------------------|
B)-------------------------------------------------------------|
G)-------------------------------------------------------------|
D)-66666666-88888888-(10)(10)(10)(10)(10)(10)(10)(10)-88888888-|
A)-66666666-88888888-(10)(10)(10)(10)(10)(10)(10)(10)-88888888-|
D)-66666666-88888888-(10)(10)(10)(10)(10)(10)(10)(10)-88888888-|
"There's just one thing (Okay!)
That would make me say...."

Guitar 1 & 2-
e)-------------------------------------|
B)-------------------------------------|
G)-55555555----------------------------|
D)-55555555-66666666-00000000-88888888-|
A)-33333333-66666666-00000000-88888888-|
D)----------66666666-00000000-88888888-|
"I used to be love drunk
But now I'm hungover
I love you forever
But now it's over...."

Bridge:

Guitar 1 & 2-
e)-----------------------------------|
B)-----------------------------------|
G)-----------------------------------|
D)-6666666666666666-0000000088888888-| x2
A)-6666666666666666-0000000088888888-|
D)-6666666666666666-0000000088888888-|
"All the time I wasted on you
All the bullshit you put me through
I'm checking into rehab
'Cause everything that we had
Didn't mean a thing to you...."

Guitar 1 & 2-
e)------------------|
B)------------------|
G)------------------|
D)-6666666666666666-|
A)-6666666666666666-|
D)-6666666666666666-|
"...you...."

Guitar 1 & 2-
(Strum this after "I love you forever")
e)---|
B)---|
G)---|
D)-8-|
A)-8-|
D)-8-|
"I used to be love drunk
(But now I'm hungover)
I love you forever
But now I'm sober...."

***During John's drum fill, move your capo up to the third fret (a whole step) if you
one.  Otherwise, bar your finger on the third fret every time you see an open chord in the
chorus.***

Chorus:

Guitar 1 & 2-
e)-------------------------------------------------------------|
B)-------------------------------------------------------------|
G)-77777777----------------------------------------------------|
D)-77777777-88888888-00000000-(10)(10)(10)(10)(10)(10)(10)(10)-| x2
A)-55555555-88888888-00000000-(10)(10)(10)(10)(10)(10)(10)(10)-|
D)----------88888888-00000000-(10)(10)(10)(10)(10)(10)(10)(10)-|
"I used to be love drunk
But now I'm hungover
I love you forever
Forever is over
We used to kiss all night
Now it's just a barfight
So just call me crazy
Say hello then goodbye...."

Guitar 1 & 2-
e)-------------------------------------------|
B)-------------------------------------------|
G)-------------------------------------------|
D)-88888888-(10)(10)(10)(10)(10)(10)(10)(10)-|
A)-88888888-(10)(10)(10)(10)(10)(10)(10)(10)-|
D)-88888888-(10)(10)(10)(10)(10)(10)(10)(10)-|
"There's just one thing (okay!)...."

Guitar 1 & 2-
e)-------------------------------------------------------------------|
B)-------------------------------------------------------------------|
G)-------------------------------------------------------------------|
D)-(12)(12)(12)(12)(12)(12)(12)(12)-(10)(10)(10)(10)(10)(10)(10)(10)-|
A)-(12)(12)(12)(12)(12)(12)(12)(12)-(10)(10)(10)(10)(10)(10)(10)(10)-|
D)-(12)(12)(12)(12)(12)(12)(12)(12)-(10)(10)(10)(10)(10)(10)(10)(10)-|
"That would make me say...."

Guitar 1 & 2-
(The slide down at the end should be fairly slow).
e)----------------------------------|
B)----------------------------------|
G)-77777777-------------------------|
D)-77777777-88888888-00000000-(10)\-|
A)-55555555-88888888-00000000-(10)\-|
D)----------88888888-00000000-(10)\-|
"I used to be love drunk
But now I'm hungover
I love you forever
But now it's...."

Outro:

Guitar 1 (Rhythm)-
e)-------------------------------------------------|
B)-------------------------------------------------|
G)-------------------------------------------------|
D)-00000000000000000-888888888888-(10)(10)(10)(10)-|
A)-00000000000000000-888888888888-(10)(10)(10)(10)-|
D)-00000000000000000-888888888888-(10)(10)(10)(10)-|
"...over...."

e)-------------------------------------------------------------|
B)-------------------------------------------------------------|
G)-------------------------------------------------------------|
D)-0000000000000-(10)(10)(10)(10)-888888888888-(10)(10)(10)(10)| x3
A)-0000000000000-(10)(10)(10)(10)-888888888888-(10)(10)(10)(10)|
D)-0000000000000-(10)(10)(10)(10)-888888888888-(10)(10)(10)(10)|
(Na na na na na na na na na
Na na na na na na na na na
Na na na na na na na na na
Na na na na na na na na na)
(Now it's over)
(Still taste it on my tongue)
(Now it's)...."

Guitar 2 (Lead)-
e)---------13--13--13-------|
B)-10h11h13--13--13--13-----|
G)--------------------------|
D)--------------------------| x8
A)--------------------------|
D)--------------------------|
(Na na na na na na na na na
Na na na na na na na na na
Na na na na na na na na na
Na na na na na na na na na)
(Now it's over)
(Still taste it on my tongue)
(Now it's)...."

Guitar 1 & 2-
e)----|
B)----|
G)----|
D)-0~-|
A)-0~-|
D)-0~-|
"...(over)...."

-end epic song here-
****************************************************************************
This is my second tab, and since this is the first one to be posted online without
to base it on, it's not entirely accurate.  Please post any comments and corrections you have.
****************************************************************************
Lyrics:

(Hey!  Hey!  Hey!  Hey!)
Top down in the summer sun
The day we met was like a hit and run
And I still taste it on my tongue (Taste it on my tongue)
The sky was burning up like fireworks
You made me want you oh so bad it hurts
But girl, in case you haven't heard

I used to be love drunk
But now I'm hungover
I love you forever
Forever is over
We used to kiss all night
Now it's just a barfight
So just call me crazy
Say hello then goodbye (Okay!)
There's just one thing (Okay!)
That would make me say
I used to be love drunk
But now I'm hungover
I love you forever
But now it's over

(Hey!  Hey!  Hey!  Hey!  Hey!  Hey!  Hey!  Hhey!)
Hot sweat and blurry eyes
We're spinning on a roller coaster ride
With the world stuck in black and white
You drove me crazy every time we touched
Now I'm so broken that I can't get up
Oh girl, you make me such a rush

I used to be love drunk
But now I'm hungover
I love you forever
Forever is over
We used to kiss all night
Now it's just a barfight
So just call me crazy
Say hello then goodbye (Okay!)
There's just one thing (Okay!)
That would make me say
I used to be love drunk
But now I'm hungover
I love you forever
But now it's over

All the time I wasted on you
All the bullshit you put me through
I'm checking into rehab
Cause everything that we had
Didn't mean a thing to you

I used to be love drunk
(But now I'm hungover)
I love you forever
But now I'm sober

I used to be love drunk
But now I'm hungover
I love you forever
Forever is over
We used to kiss all night
Now it's just a barfight
So just call me crazy
Say hello then goodbye (Okay!)
There's just one thing (Okay!)
That would make me say
I used to be love drunk
But now I'm hungover
I love you forever
But now it's over
(Na na na na na na na na na
Na na na na na na na na na
Na na na na na na na na na
Na na na na na na na na na)

(Now it's over)
(Still taste it on my tongue)
(Now it's over)....
****************************************************************************
Related for Love Drunk tab
Love Drunk chords by Boys Like Girls