Guitaretab - guitar tabs
Song name
# A B C D E F G H I J K L M N O P Q R S T U V W X Y Z

Boys Like Girls - Heroheroine Acoustic tab

This is my first tab and this is the acoustic bonus track version. I got it
on itunes and I like it a lot better than the original. It's a little
different. Sorry everything's so close together and hard to read. In the
second verse the strumming pattern might not be right but Iím pretty sure
itís the right chords. And the timing might not be perfect but I did my
best. The dots are palm mutes. There are two guitars in it.  When I put two
numbers right next to each other, its two separate numbers, like 33 is two
threes, not thirty three. You donít have to play the whole chords it still
sounds fine with just the power chord.
Here's how I play it:



    Intro
eb|--------0---0---0---0---0---0---0---0-----|
Bb|------0---0---0---0---0---0---0---0-------|
Gb|-----5-5-5-5-5-5-5-5-5-5-5-5-5-5-5-5------|
Db|------------------------------------------|
Ab|------------------------------------------|
Eb|------------------------------------------|


eb|--------0---0---0---0---3---3---3---3-----|
Bb|------0---0---0---0---0---0---0---0-------|
Gb|-----5-5-5-5-5-5-5-5-5-5-5-5-5-5-5-5------|
Db|------------------------------------------|
Ab|------------------------------------------|
Eb|------------------------------------------|
  |                                          |
eb|-----88888888888888883333333333333333-----|
Bb|------------------------------------------|
Gb|------------------------------------------|
Db|------------------------------------------|
Ab|------------------------------------------|
Eb|------------------------------------------|


eb|--------0---0---0---0---3---3---3---3-----|
Bb|------0---0---0---0---0---0---0---0-------|
Gb|-----5-5-5-5-5-5-5-5-5-5-5-5-5-5-5-5------|
Db|------------------------------------------|
Ab|------------------------------------------|
Eb|------------------------------------------|
  |                                          |
eb|------------------------------------------|
Bb|-----55555555555555556666666666666666-----|
Gb|------------------------------------------|
Db|------------------------------------------|
Ab|------------------------------------------|
Eb|------------------------------------------|


     Verse 1
eb|--------0---0---0---0---3---3---3---3-----|
Bb|------0---0---0---0---0---0---0---0-------|
Gb|-----5-5-5-5-5-5-5-5-5-5-5-5-5-5-5-5------|
Db|------------------------------------------|
Ab|------------------------------------------|
Eb|------------------------------------------|
  |                                          |
eb|-----88888888888888883333333333333333-----|
Bb|------------------------------------------|
Gb|------------------------------------------|
Db|------------------------------------------|
Ab|------------------------------------------|
Eb|------------------------------------------|


eb|--------0---0---0---0---3---3---3---3-----|
Bb|------0---0---0---0---0---0---0---0-------|
Gb|-----5-5-5-5-5-5-5-5-5-5-5-5-5-5-5-5------|
Db|------------------------------------------|
Ab|------------------------------------------|
Eb|------------------------------------------|
  |                                          |
eb|------------------------------------------|
Bb|-----55555555555555556666666666666666-----|
Gb|------------------------------------------|
Db|------------------------------------------|
Ab|------------------------------------------|
Eb|------------------------------------------|


eb|--------0---0---0---0---3---3---3---3-----|
Bb|------0---0---0---0---0---0---0---0-------|
Gb|-----5-5-5-5-5-5-5-5-5-5-5-5-5-5-5-5------|
Db|------------------------------------------|
Ab|------------------------------------------|
Eb|------------------------------------------|
  |                                          |
eb|-----88888888888888883333333333333333-----|
Bb|------------------------------------------|
Gb|------------------------------------------|
Db|------------------------------------------|
Ab|------------------------------------------|
Eb|------------------------------------------|


eb|--------0---0---0---0---3---3---3---3-----|
Bb|------0---0---0---0---0---0---0---0-------|
Gb|-----5-5-5-5-5-5-5-5-5-5-5-5-5-5-5-5------|
Db|------------------------------------------|
Ab|------------------------------------------|
Eb|------------------------------------------|
  |                                          |
eb|------------------------------------------|
Bb|-----55555555555555556666666666666666-----|
Gb|------------------------------------------|
Db|------------------------------------------|
Ab|------------------------------------------|
Eb|------------------------------------------|



     Pre-Chorus
eb|----333-3-3335-55-55551-1-111-11-1111-----|
Bb|----333-3-3335-55-55551-1-111-11-1111-----|
Gb|----444-4-4445-55-55552-2-222-22-2222-----|
Db|----555-5-5557-77-77773-3-333-33-3333-----|
Ab|----555-5-5557-77-77773-3-333-33-3333-----|
Eb|----333-3-3335-55-55551-1-111-11-1111-----|


eb|----333-3-3335-55-55551-------------------|
Bb|----333-3-3335-55-55551-------------------|
Gb|----444-4-4445-55-55552-------------------|
Db|----555-5-5557-77-77773-------------------|
Ab|----555-5-5557-77-77773-------------------|
Eb|----333-3-3335-55-55551-------------------|



     Chorus
eb|--------0---0---0---0---0---0---0---0-----|
Bb|------0---0---0---0---0---0---0---0-------|
Gb|-----5-5-5-5-5-5-5-5-5-5-5-5-5-5-5-5------|
Db|------------------------------------------|
Ab|------------------------------------------|
Eb|------------------------------------------|
  |                                          |
eb|------------------------------------------|
Bb|------------------------------------------|
Gb|------------------------------------------|
Db|-----77-77-77--------55-55-55-------------|
Ab|-----77-77-77--------55-55-55-------------|
Eb|-----55-55-55--------33-33-33-------------|
        .. .. ..        .. .. ..

eb|--------0---0---0---0---3---3---3---3-----|
Bb|------0---0---0---0---0---0---0---0-------|
Gb|-----5-5-5-5-5-5-5-5-5-5-5-5-5-5-5-5------|
Db|------------------------------------------|
Ab|------------------------------------------|
Eb|------------------------------------------|
  |                                          |
eb|------------------------------------------|
Bb|------------------------------------------|
Gb|------------------------------------------|
Db|-----33-33-33--------33-33-33-------------|
Ab|-----33-33-33--------33-33-33-------------|
Eb|-----11-11-11--------11-11-11-------------|
        .. .. ..        .. .. ..


     Verse 2
eb|--------0---0---0---0---3---3---3---3-----|
Bb|------0---0---0---0---0---0---0---0-------|
Gb|-----5-5-5-5-5-5-5-5-5-5-5-5-5-5-5-5------|
Db|------------------------------------------|
Ab|------------------------------------------|
Eb|------------------------------------------|
  |                                          |
eb|-----555-5-55555555553-33333333333333-----|
Bb|-----555-5-55555555553-33333333333333-----|
Gb|-----555-5-55555555554-44444444444444-----|
Db|-----777-7-77777777775-55555555555555-----|
Ab|-----777-7-77777777775-55555555555555-----|
Eb|-----555-5-55555575553-33333333333333-----|

eb|--------0---0---0---0---3---3---3---3-----|
Bb|------0---0---0---0---0---0---0---0-------|
Gb|-----5-5-5-5-5-5-5-5-5-5-5-5-5-5-5-5------|
Db|------------------------------------------|
Ab|------------------------------------------|
Eb|------------------------------------------|
  |                                          |
eb|-----11111111111111113333333333333333-----|
Bb|-----11111111111111113333333333333333-----|
Gb|-----22222222222222224444444444444444-----|
Db|-----33333333333333335555555555555555-----|
Ab|-----33333333333333335555555555555555-----|
Eb|-----11111111111111113333333333333333-----|


eb|--------0---0---0---0---3---3---3---3-----|
Bb|------0---0---0---0---0---0---0---0-------|
Gb|-----5-5-5-5-5-5-5-5-5-5-5-5-5-5-5-5------|
Db|------------------------------------------|
Ab|------------------------------------------|
Eb|------------------------------------------|
  |     ................................     |
eb|-----88888888888888883333333333333333-----|
Bb|------------------------------------------|
Gb|------------------------------------------|
Db|------------------------------------------|
Ab|------------------------------------------|
Eb|------------------------------------------|
        ................................

eb|--------0---0---0---0---3---3---3---3-----|
Bb|------0---0---0---0---0---0---0---0-------|
Gb|-----5-5-5-5-5-5-5-5-5-5-5-5-5-5-5-5------|
Db|------------------------------------------|
Ab|------------------------------------------|
Eb|------------------------------------------|
  |     ................................     |
eb|------------------------------------------|
Bb|-----55555555555555556666666666666666-----|
Gb|------------------------------------------|
Db|------------------------------------------|
Ab|------------------------------------------|
Eb|------------------------------------------|
        ................................


     Pre-Chorus
eb|----333-3-3335-55-55551-1-111-11-1111-----|
Bb|----333-3-3335-55-55551-1-111-11-1111-----|
Gb|----444-4-4445-55-55552-2-222-22-2222-----|
Db|----555-5-5557-77-77773-3-333-33-3333-----|
Ab|----555-5-5557-77-77773-3-333-33-3333-----|
Eb|----333-3-3335-55-55551-1-111-11-1111-----|


eb|----333-3-3335-55-55551-------------------|
Bb|----333-3-3335-55-55551-------------------|
Gb|----444-4-4445-55-55552-------------------|
Db|----555-5-5557-77-77773-------------------|
Ab|----555-5-5557-77-77773-------------------|
Eb|----333-3-3335-55-55551-------------------|


[ Tab from: http://www.guitaretab.com/b/boys-like-girls/84241.html ]
     Chorus
eb|--------0---0---0---0---0---0---0---0-----|
Bb|------0---0---0---0---0---0---0---0-------|
Gb|-----5-5-5-5-5-5-5-5-5-5-5-5-5-5-5-5------|
Db|------------------------------------------|
Ab|------------------------------------------|
Eb|------------------------------------------|
  |                                          |
eb|------------------------------------------|
Bb|------------------------------------------|
Gb|------------------------------------------|
Db|-----77-77-77--------55-55-55-------------|
Ab|-----77-77-77--------55-55-55-------------|
Eb|-----55-55-55--------33-33-33-------------|
        .. .. ..        .. .. ..

eb|-----11-11-11-11-111111-11-11-11-1111-----|
Bb|-----11-11-11-11-111111-11-11-11-1111-----|
Gb|-----22-22-22-22-222222-22-22-22-2222-----|
Db|-----33-33-33-33-333333-33-33-33-3333-----|
Ab|-----33-33-33-33-333333-33-33-33-3333-----|
Eb|-----11-11-11-11-111111-11-11-11-1111-----|


eb|-----5-5-5-5-5-5-5-553-3-3-3-3-3-3-33-----|
Bb|-----5-5-5-5-5-5-5-553-3-3-3-3-3-3-33-----|
Gb|-----5-5-5-5-5-5-5-554-4-4-4-4-4-4-44-----|
Db|-----7-7-7-7-7-7-7-775-5-5-5-5-5-5-55-----|
Ab|-----7-7-7-7-7-7-7-775-5-5-5-5-5-5-55-----|
Eb|-----5-5-5-5-5-5-5-553-3-3-3-3-3-3-33-----|


eb|-----11-11-11-11-111111-11-11-11-1111-----|
Bb|-----11-11-11-11-111111-11-11-11-1111-----|
Gb|-----22-22-22-22-222222-22-22-22-2222-----|
Db|-----33-33-33-33-333333-33-33-33-3333-----|
Ab|-----33-33-33-33-333333-33-33-33-3333-----|
Eb|-----11-11-11-11-111111-11-11-11-1111-----|



     Bridge
eb|---------------------5--------------------|
Bb|---------------------5--------------------|
Gb|---------------------5--------------------|
Db|---------------------7--------------------|
Ab|---------------------7--------------------|
Eb|---------------------5--------------------|
  |                                          |
eb|--------0---0---0---0---0---0---0---0-----|
Bb|------0---0---0---0---0---0---0---0-------|
Gb|-----5-5-5-5-5-5-5-5-5-5-5-5-5-5-5-5------|
Db|------------------------------------------|
Ab|------------------------------------------|
Eb|------------------------------------------|


eb|-----1---------------3--------------------|
Bb|-----1---------------3--------------------|
Gb|-----2---------------4--------------------|
Db|-----3---------------5--------------------|
Ab|-----3---------------5--------------------|
Eb|-----1---------------3--------------------|
  |                                          |
eb|--------0---0---0---0---0---0---0---0-----|
Bb|------0---0---0---0---0---0---0---0-------|
Gb|-----5-5-5-5-5-5-5-5-5-5-5-5-5-5-5-5------|
Db|------------------------------------------|
Ab|------------------------------------------|
Eb|------------------------------------------|


eb|-----5555555555555553-333333333333333-----|
Bb|-----5555555555555553-333333333333333-----|
Gb|-----5555555555555554-444444444444444-----|
Db|-----7777777777777775-555555555555555-----|
Ab|-----7777777777777775-555555555555555-----|
Eb|-----5555555555555553-333333333333333-----|
  |                                          |
eb|--------0---0---0---0---0---0---0---0-----|
Bb|------0---0---0---0---0---0---0---0-------|
Gb|-----5-5-5-5-5-5-5-5-5-5-5-5-5-5-5-5------|
Db|------------------------------------------|
Ab|------------------------------------------|
Eb|------------------------------------------|


eb|-----11111111111111111111111111111111-----|
Bb|-----11111111111111111111111111111111-----|
Gb|-----22222222222222222222222222222222-----|
Db|-----33333333333333333333333333333333-----|
Ab|-----33333333333333333333333333333333-----|
Eb|-----11111111111111111111111111111111-----|
  |                                          |
eb|--------0---0---0---0---0---0---0---0-----|
Bb|------0---0---0---0---0---0---0---0-------|
Gb|-----5-5-5-5-5-5-5-5-5-5-5-5-5-5-5-5------|
Db|------------------------------------------|
Ab|------------------------------------------|
Eb|------------------------------------------|



     Prechorus
eb|-----55555555588888888333333333333333-----|
Bb|------------------------------------------|
Gb|------------------------------------------|
Db|------------------------------------------|
Ab|------------------------------------------|
Eb|------------------------------------------|


eb|---------------------0--------------------|
Bb|-----55555555533333331--------------------|
Gb|---------------------0--------------------|
Db|------------------------------------------|
Ab|------------------------------------------|
Eb|------------------------------------------|



     Chorus
eb|-----5-5-5-5-5-5-5-553-3-3-3-3-3-3-33-----|
Bb|-----5-5-5-5-5-5-5-553-3-3-3-3-3-3-33-----|
Gb|-----5-5-5-5-5-5-5-554-4-4-4-4-4-4-44-----|
Db|-----7-7-7-7-7-7-7-775-5-5-5-5-5-5-55-----|
Ab|-----7-7-7-7-7-7-7-775-5-5-5-5-5-5-55-----|
Eb|-----5-5-5-5-5-5-5-553-3-3-3-3-3-3-33-----|


eb|-----11-11-11-11-111111-11-11-11-1111-----|
Bb|-----11-11-11-11-111111-11-11-11-1111-----|
Gb|-----22-22-22-22-222222-22-22-22-2222-----|
Db|-----33-33-33-33-333333-33-33-33-3333-----|
Ab|-----33-33-33-33-333333-33-33-33-3333-----|
Eb|-----11-11-11-11-111111-11-11-11-1111-----|


eb|-----5-5-5-5-5-5-5-553-3-3-3-3-3-3-33-----|
Bb|-----5-5-5-5-5-5-5-553-3-3-3-3-3-3-33-----|
Gb|-----5-5-5-5-5-5-5-554-4-4-4-4-4-4-44-----|
Db|-----7-7-7-7-7-7-7-775-5-5-5-5-5-5-55-----|
Ab|-----7-7-7-7-7-7-7-775-5-5-5-5-5-5-55-----|
Eb|-----5-5-5-5-5-5-5-553-3-3-3-3-3-3-33-----|


eb|-----11-11-11-11-111111-11-11-11-1111-----|
Bb|-----11-11-11-11-111111-11-11-11-1111-----|
Gb|-----22-22-22-22-222222-22-22-22-2222-----|
Db|-----33-33-33-33-333333-33-33-33-3333-----|
Ab|-----33-33-33-33-333333-33-33-33-3333-----|
Eb|-----11-11-11-11-111111-11-11-11-1111-----|



     Bridge
eb|-----55555555555555555555555555555555-----|
Bb|-----55555555555555555555555555555555-----|
Gb|-----55555555555555555555555555555555-----|
Db|-----77777777777777777777777777777777-----|
Ab|-----77777777777777777777777777777777-----|
Eb|-----55555555555555555555555555555555-----|
  |                                          |
eb|--------0---0---0---0---0---0---0---0-----|
Bb|------0---0---0---0---0---0---0---0-------|
Gb|-----5-5-5-5-5-5-5-5-5-5-5-5-5-5-5-5------|
Db|------------------------------------------|
Ab|------------------------------------------|
Eb|------------------------------------------|


eb|-----33333333333333333333333333333333-----|
Bb|-----33333333333333333333333333333333-----|
Gb|-----44444444444444444444444444444444-----|
Db|-----55555555555555555555555555555555-----|
Ab|-----55555555555555555555555555555555-----|
Eb|-----33333333333333333333333333333333-----|
  |                                          |
eb|--------0---0---0---0---0---0---0---0-----|
Bb|------0---0---0---0---0---0---0---0-------|
Gb|-----5-5-5-5-5-5-5-5-5-5-5-5-5-5-5-5------|
Db|------------------------------------------|
Ab|------------------------------------------|
Eb|------------------------------------------|


eb|-----11111111111111111111111111111111-----|
Bb|-----11111111111111111111111111111111-----|
Gb|-----22222222222222222222222222222222-----|
Db|-----33333333333333333333333333333333-----|
Ab|-----33333333333333333333333333333333-----|
Eb|-----11111111111111111111111111111111-----|
  |                                          |
eb|--------0---0---0---0---0---0---0---0-----|
Bb|------0---0---0---0---0---0---0---0-------|
Gb|-----5-5-5-5-5-5-5-5-5-5-5-5-5-5-5-5------|
Db|------------------------------------------|
Ab|------------------------------------------|
Eb|------------------------------------------|


eb|-----11111111111111111111111111111111-----|
Bb|-----11111111111111111111111111111111-----|
Gb|-----22222222222222222222222222222222-----|
Db|-----33333333333333333333333333333333-----|
Ab|-----33333333333333333333333333333333-----|
Eb|-----11111111111111111111111111111111-----|
  |                                          |
eb|--------0---0---0---0---0---0---0---0-----|
Bb|------0---0---0---0---0---0---0---0-------|
Gb|-----5-5-5-5-5-5-5-5-5-5-5-5-5-5-5-5------|
Db|------------------------------------------|
Ab|------------------------------------------|
Eb|------------------------------------------|



     Chorus/Outro
eb|--------0---0---0---0---3---3---3---3-----|
Bb|------0---0---0---0---0---0---0---0-------|
Gb|-----5-5-5-5-5-5-5-5-5-5-5-5-5-5-5-5------|
Db|------------------------------------------|
Ab|------------------------------------------|
Eb|------------------------------------------|
  |                                          |
eb|------------------------------------------|
Bb|------------------------------------------|
Gb|------------------------------------------|
Db|-----33-33-33--------33-33-33-------------|
Ab|-----33-33-33--------33-33-33-------------|
Eb|-----11-11-11--------11-11-11-------------|
        .. .. ..        .. .. ..

eb|--------0---0---0---0---3---3---3---3-----|
Bb|------0---0---0---0---0---0---0---0-------|
Gb|-----5-5-5-5-5-5-5-5-5-5-5-5-5-5-5-5------|
Db|------------------------------------------|
Ab|------------------------------------------|
Eb|------------------------------------------|
  |                                          |
eb|------------------------------------------|
Bb|------------------------------------------|
Gb|------------------------------------------|
Db|-----33-33-33--------33-33-33-------------|
Ab|-----33-33-33--------33-33-33-------------|
Eb|-----11-11-11--------11-11-11-------------|
        .. .. ..        .. .. ..




There thatís it I think I got everything.  Hope you think its right.  For
Austin, when I say just play the power chords, I mean like this:

eb|---|
Bb|---|
Gb|---|
Db|-7-|
Ab|-7-|
Eb|-5-|
Related for Heroheroine Acoustic tab