Guitaretab - guitar tabs
Song name
# A B C D E F G H I J K L M N O P Q R S T U V W X Y Z

Boys Like Girls - Let Go tab

-------------------------------------------------------------------------------
			    LET GO - BOYS LIKE GIRLS
-------------------------------------------------------------------------------
Tabbed by:Brendan
Email: infinitezero95@aol.com

Tuning: STANDARD 

 INTRTO   (Repeated)                    uhm i "think" i covered everything
e|-----4-------4-----------|
B|---7---7---7---7--------o|
G|-6-------6---------------|
D|-------------------------|
A|------------------------o|
E|-------------------------|
   
 (Repeated)
e|----------------------------------------------|
B|---------------------------------------------o|
G|----------------------------------------------|
D|----------------------------------------------|
A|--7--9--7--9--7--9--7--9--7--9---------------o|
E|----------------------------------------------|

 (Right after that last verse, Repeated too)
e|-----------------------|
B|----------------------o|
G|-----------------------|
D|--9-9-7-6--------(9)---|
A|----------9-7-6-------o|
E|----------------7------|

(This part can be played in a couple ways)    REPEATED TOO
                                   OR
e|---4-----2-----4-----2--2-0-------|---4-----2-----4-----2--2-0------------|
B|-2-----0-----2-----0-------4-2---o|----------------------------4---------o|
G|----------------------------------|-6-----4-----6-----4----------6--------|
D|----------------------------------|---------------------------------------|
A|---------------------------------o|--------------------------------------o|
E|----------------------------------|---------------------------------------|
[ Tab from: http://www.guitaretab.com/b/boys-like-girls/179819.html ]
 -----------------------REPEAT TO THE BEGGINING-----------------------------


(Also played like this later in the song)
e|---4---4-----2---2-----4---4-----2--2-0-------|
B|-2----2-2--0----0-0--2----2-2--0--------4-2--o|
G|----------------------------------------------|
D|----------------------------------------------|
A|---------------------------------------------o|
E|----------------------------------------------|

OUTRO
Played untill song ends (Theres a few ways to play this too)
e|--99999999-7777-5555-44444444444-5555-44444444444-5555-44444444-222222-----|
B|--------------------------------------------------------------------------o|
G|---------------------------------------------------------------------------|
D|---------------------------------------------------------------------------|
A|--------------------------------------------------------------------------o|
E|---------------------------------------------------------------------------|
                              OR
 (thats 10 not 1-0)  (the string change makes it seem airy but its easier)
e|--99999999-7777---------------------------------------------------------------------|
B|----------------10101010-99999999999-10101010-99999999999-10101010-99999999-777777-o|
G|------------------------------------------------------------------------------------|
D|------------------------------------------------------------------------------------|
A|-----------------------------------------------------------------------------------o|
E|------------------------------------------------------------------------------------|





===============================================================================
Related for Let Go tab
Let Go chords by Boys Like Girls