Song name
# A B C D E F G H I J K L M N O P Q R S T U V W X Y Z

Boys Like Girls - Holiday tab

Just thought I would put it up the right way, since none of the others were put in open tuning.  

On the chord parts I'm sure you can figure out the strumming yourself, just giving you the chords


Capo on 2 (So through-out the tab "2" is open with no frets down)



Intro & Verse(Guitar 1)

D--------------15---------15---------15--------|
A--15----15---------15---------15---------15---|
F#----10----10---10----10---10----10---10---10-|
D----------------------------------------------|
A----------------------------------------------|
D----------------------------------------------|

repeat until the chorus(Paul plays this almost the entire song)


Verse 1(Guitar 2)
 "When I was younger I used to be wild..."
D----------2----2----2------|
A------2-----2----2----2--2-|
F#--10--10----10---10---10--| Repeat till Chorus
D---------------------------|
A---------------------------|
D---------------------------|
-This part is very hard to hear, but trust me its there


Chorus 1

D---2---2---2----2---2/2---2---2---2----2--2-2---2/2---2--|
A---2---2---2----2---2/2---2---2---2----2--2-2---2/2---2--|
F#--------------------------------------------------------|
D---2---9---11---7---7/9---2---9---11---11-9-7---7/9---2--|
A---2---9---11---7---7/9---2---9---11---11-9-7---7/9---2--|
D---2---9---11---7---7/9---2---9---11---11-9-7---7/9---2--|

(Remember the "2's" are left open by the capo, so open is "2")
-The intro is also played during the chorus


Verse 2(Guitar 1)

D--------------15---------15---------15--------|
A--15----15---------15---------15---------15---|
F#----10----10---10----10---10----10---10---10-| Repeat till chorus
D----------------------------------------------|
A----------------------------------------------|
D----------------------------------------------|


Verse 2(Guitar 2)
 "My father he was always wise..."
D----------2----2----2----2-|
A------2-----2----2----2----|
F#--10--10----10---10---10--| Repeat till chorus
D---------------------------|
A---------------------------|
D---------------------------|
-This part is very hard to hear, but trust me its there



Chorus 2

D---2---2---2----2---2/2---2---2---2----2--2-2---2/2--|
A---2---2---2----2---2/2---2---2---2----2--2-2---2/2--|
F#----------------------------------------------------|
D---2---9---11---7---7/9---2---9---11---11-9-7---7/9--|
A---2---9---11---7---7/9---2---9---11---11-9-7---7/9--|
D---2---9---11---7---7/9---2---9---11---11-9-7---7/9--|

(Remember the "2's" are left open by the capo, so open is "2")
-The intro is also played during the chorus


Bridge

D--2---2---2---2---|                       D--2--|
A--2---2---2---2---|                       A--2--|
F#-----------------| 2x  Last Time End on  F#----|
D--7---6---4---9---|                       D--2--|
A--7---6---4---9---|                       A--2--|
D--7---6---4---9---|                       D--2--|


Verse(Guitar 1 & 2)
 "When I was younger I used to be wild"


Chorus 3

D---2---2---2----2---2/2---2---2---2----2--2-2---2/2---2-|
A---2---2---2----2---2/2---2---2---2----2--2-2---2/2---2-|
F#-------------------------------------------------------|
D---2---9---11---7---7/9---2---9---11---11-9-7---7/9---2-|
A---2---9---11---7---7/9---2---9---11---11-9-7---7/9---2-|
D---2---9---11---7---7/9---2---9---11---11-9-7---7/9---2-|

(Remember the "2's" are left open by the capo, so open is "2")
-The intro is also played during the chorus



Outro (Guitar 1)

D--------------15---------15---------15--------|
A--15----15---------15---------15---------15---|
F#----10----10---10----10---10----10---10---10-| Play till end
D----------------------------------------------|
A----------------------------------------------|
D----------------------------------------------|


Outro Guitar 2)
 
D----------2----2----2----2-|
A------2-----2----2----2----|
F#--10--10----10---10---10--| Play till end
D---------------------------|
A---------------------------|
D---------------------------|

Thanks, and enjoy.

Let me know what you think: SLeinenbach01@yahoo.com
Tap to rate this tab
# A B C D E F G H I J K L M N O P Q R S T U V W X Y Z