Song name
# A B C D E F G H I J K L M N O P Q R S T U V W X Y Z

Boyzone - Baby Can I Hold You tab

Baby can i hold you - Boyzone
Tabbed by:Ryan B. Albert
Date:March 28,2007
Email:ryan_albertstein@yahoo.com

Tuning:EADGBe
 
Intro:(2x)
e|-----------2-----------2-----------------|
B|--------3-----3-----3-----3-----------3--|
G|-----2-----------2-----------2-----0-----|
D|--0-----------------------------2--------|
A|-----------------------------------------|
E|-----------------------------------------|

 Verse: (repeat twice)
e|-----------2-----------2--------------------------------2--|
B|--------3-----3-----3-----3-----------3-----------------3--|
G|-----2-----------2-----------2-----0-----0-----------0-----|
D|--0-----------------------------2-----------2-----0--------|
A|-----------------------------------------------2-----------|
E|-----------------------------------------------------------|
 Sorry,                     is all that you can say

e|--------------------------|
B|--0h3-----------3---------|
G|-------2-----0-----0------|
D|----------2-----------2---|
A|--------------------------|
E|--------------------------|
    Years gone by and 

e|-----------2-----------2-----------------------2h3--2h3-----2--|
B|--------3-----3-----3-----3-----------3---------------------3--|
G|-----2-----------2-----------2-----0-----0---------------0-----|
D|--0-----------------------------2-----------2------------------|
A|---------------------------------------------------------------|
E|---------------------------------------------------------------|
  still                    Words dont come easily

e|---3--------------0-------|
B|---3--------------2-------|
G|---0--------------2-------|
D|---0--------------2-------|
A|---2--------------0-------|
E|---3--------------x-------|
  Like a sorry,like a sorry

  	

Chorus:(strumming)
C
But you can say baby
Em          G          D
Baby can I hold you tonight
Em         G            Bm
Baby if I told you the right words
           A
Oh at the right time
          D   
You'd be mine



Tap to rate this tab
 
# A B C D E F G H I J K L M N O P Q R S T U V W X Y Z