Song name
# A B C D E F G H I J K L M N O P Q R S T U V W X Y Z

Brad Paisley - Throttleneck tab

Here is the rest of the song...feel free to correct if you think there are any errors.

E----------------------------------------------------------------------------|
B----------------------5h6p5-----------5-8-5---------------------------------|
G----------------0h5h7-------7-5-7b(9)-------7~-5---7-5----------------------|
D-----------0h5h7---------------------------------7-----7-3---5b(7)-3--------|
A---0h3h5---------------------------------------------5-------3b(5)-0-----0--|b
E-10h1h3-------------------------------------------------------------10h1----|

E---------------------------------------------------------------------------|
B-------------------5~~-----8-6-5h6p5p0-------------------10----13b 15------|
G---------------------------------------5/7\5-----7-----10----10----10------|
D-------5-------------------------------------5/7---7/10---12---------------|
A-0-3/7---7p0-0h5h7----0h7h9------------------------------------------------|
E---------------------------------------------------------------------------|

E-10---------------10--------------------------------------------------------|
B----13---------10-----13--------------------10-13-10----10------------------|
G----12b(14)-10----12b(14)-10--10-12B---------12----13-12-10----10-12b-10b---|
D------------------------------------------------------------12-----------10-|
A----------------------------------------------------------------------------|
E----------------------------------------------------------------------------|

E------------------------5-----17-17-15-13-12h13p12-10---10------------------|
B------------------2~---------------------------------13---13-10----10-------|
G------------------2~-2/5--5/14--------------------------12----13-12-10------|
D------------0h2h3-----------------------------------------------------12-10-|
A-------0h3h4----------------------------------------------------------------|
E-0-3/5----------------------------------------------------------------------|

E----------------------------12----10--13-12-10-----------------------------|
B----------------10----13-------------------------13----11-10---------------|
G-12b(14)-----10----10----10----10---10--------10----10-------10-12-10----9-|
D--------10-12---------------------------------------------------------10---|
A-------------------------------------------------------------------10------|
E---------------------------------------------------------------------------|

E-------------------------------------------------------------------10------|
B----------------3-6-5---3---1--------------------------------------13-10---|
G--------0-5-3--3------5---3---3-2--2-3-----5-5-5-5b(7)5br------10-12b(14)--|
D----0-3--------------------------------3/5-5-5-5-5-------------------------|
A-1/3------------------------------------------------------12-12------------|
E---------------------------------------------------------------------------|

E---------------------------------------------------------------------------|
B----10-------------------13-12-13-12--12-----------------------------------|
G-13----13-12-10----10-10-12---------14--14-12--9-10-9--9-------------------|
D----------------12---------------------------14------12-12-10-9-10-9--9----|
A------------------------------------------------------------12-12-10-8-----|
E----------------------------------------------------------------------10-8-|

E--------------------------15-18--17-15-13-----------------------------------|
B-----------15-18--------15----------------17-15-13\10h11p10--10-------------|
G---------15-----------15-----------------------------------12--12-10-9h10p9-|
D----15-15-----------15---------------------------------------------12-10----|
A-17---------------17--------------------------------------------------------|
E----------------------------------------------------------------------------|

E---------------------------------------------------------------------------|
B---------------------------------------------------------------------------|
G---------------------------------------------------------------------------|
D-8h10p8--8---3p0--3p0--3p0--5p0--7p0--7p0--10p0---10p0---8p0---8p0---8p0---|
A----12-12-10-8\5-----5----5----5---7---8----8-----12---12----10----10---10-|
E---------------------------------------------------------------------------|

E----------------------------------------------------------------------------|
B----------------------------------------------------------------------------|
G--------------------------2-------------------------------------------------|
D-7p0----------------------2--2-2-2-2h3p2p0----0-----------------------------|
A----8-8p0--8p0--8p0-----0----------3-0-0-3-0-3bh(5)-(5)-(5)--(5)(5)(5)5-3br-|
E---------6----6----6-X 5b---------------------------------------------------|


E---0-0-0-------------------------------------------------------------------|
B-3/5-3-1--1-3-5-3~-1h3p1-0--0h1~-0h1p0------0-1-1~-----5~------------------|
G----------2-4-5-4~-2h4p2-0--0h2~-0h2p0-2~-2-0-2-2~-----5~------------------|
D---------------------------------------3~-3--------5/7---------------------|
A---------------------------------------------------------------------------|
E---------------------------------------------------------------------------|

E---------------------------------------------------------------------------|
B--------10-13-10--10-------------------------------------------------------|
G-12b(14)--------13--13-12-10--10-12-10-------------------------------------|
D----------------------------12--------12--12-10----10----------------------|
A------------------------------------------------12----12-10-12-10----------|
E------------------------------------------------------------------10-8-10\-|


E---------------------------------------------------------------------------|
B------------0-2/3p0--0-4/5---5/6-------------------------------------------|
G----------3-0-3/4p0--0-5/6---6/7-------------------------------------------|
D-----3---------------------4-----------------------------------------------|
A-1/5---3/5-----------------------------------------------------------------|
E---------------------------------------------------------------------------|


E---------------------------------------------------------------------------|
B-5/13-13-10-----6-6-5-------5h8p5------------------------------------------|
G-5/12-12-10-----5-5-5------5-----5--5p0------------------------------------|
D--------------------------6-------6----7p0-5p0---5p0-3p0-2p0---------------|
A-------------4/5-------5-8--------------------7p0-----------3p0-1~~~-------|
E---------------------------------------------------------------------------|


E---------------------------------------------------------5-----------------|
B----------6-3----------------------------------------------8---------------|
G--------5-----5-3-0~--------0----------5---7-5---5-7bh\9~~~-7br-5----------|
D-3-5b\7-------------3p0-2/3--------5-7---7-----7-------------------5\------|
A-------------------------------5/7-----------------------------------------|
E---------------------------------------------------------------------------|

E---------------------------------------------------------------------------|
B--------------------------------------6-5-3--------------------------------|
G------------0-------5-------------7---5-5-5--3/5p3p0-------3/5p0-----------|
D-----0--2-3--3--5/7---3-5b-3--3/7---5---5-5----------5-3p0-------3p0-------|
A-2-3-----------------------------------------------------------------0b----|
E------1--------------------------------------------------------------------|

E---------------------------------------------------------------------------|
B---------------------------------------------------------------------------|
G---------------------------------------------------------------------------|
D-0-0-0-0-2-3~------5-3--------------2--2--2-2-2h3p2p0----------------------|
A-----3b(5)-----0b(1)---------00-00------------3-0-3b(5)--3-3--x-x-x-x------|
E------------------------------3b(5)---------------------10-10---x-x-x-x----|

E---------------------------------------------------------------------------|
B---------------------------------------------------------------------------|
G--------------5--3--2---3-3---------------------------7-6-4p0--------------|
D-0-0-0-0-2-3~-7--5--3---3-3------7--------------0h5h7---------7p5p4p0------|
A-----------------------1-1-------7--------0h5h7-----------------------3/5--|
E----------------------------3b\5---10h3h5----------------------------------|


E----------------------------------------------------------------------------|
B--------------------------------------------6-5-----------------------------|
G----7----7----7-5--------------5~-2/7b\9br-----5----------------------------|
D------------------5~-3p0-------5~-------------------------------------------|
A-5-5--5-5--5-5-----------3/5~~~5~-------------------------------------------|
E----------------------------------------------------------------------------|

E-------------------------------------------------------------2---0----------|
B-----------------------------------------------------3--3-3/8-7--10/12-10---|
G---------------------------3-2-------------------------------2~~~~~---------|
D----2-3~-5/7~-5b\7br-3---3--2--2-2-2-2-2-2h3p2p0-----0------0~~~~~----------|
A-3/5---------------------1---0--------------------3p0---0h3--0~~~~~---------|
E----------------------------------------------------------------------------|

E-10/12-10--10-12-14--------------------------------------------------------|
B---------------------------------------------------------------------------|
G---------------------------------------------------------------------------|
D---------------------------------------------------------------------------|
A---------------------------------------------------------------------------|
E---------------------------------------------------------------------------|
Tap to rate this tab
# A B C D E F G H I J K L M N O P Q R S T U V W X Y Z