Song name
# A B C D E F G H I J K L M N O P Q R S T U V W X Y Z

Brad Paisley - Huckleberry Jam tab

----------------------------------------------------------------------------
		     Brad Paisley - Huckleberry Jam
----------------------------------------------------------------------------
Tabbed by: Brandon G
Email: terre.gable334@wku.edu

Tuning: Standard

e|-----------------------------------------------|
B|-----------------------------------------------|
G|--------------------------5p2-----2------------|
D|--------------2-4p2-----2----4-2----4p2-----2--|
A|-------0-0-3h4-----4-3-4---------------4-3-4---|
E|--0-3b-----------------------------------------|

e|------------------------------|
B|------------------------------|
G|------------------------------|
D|---------2-4p2----------------|
A|--0-0-3h4-----4-3/2-----------|
E|-------------------3b-0-0-0~--|

e|---------------------------------12--10--9---7--5--3--5--|
B|---------------------------------------------------------|
G|-----------------------5~---7~---13--11--10--8--6--4--6--|
D|---------2-4p2-----2---5~---7~---------------------------|
A|--0-0-3h4-----4-3-4--/7--7/9-----------------------------|
E|-------------------------------12--10---9---7--5--3---5--|

| /  slide up
| \  slide down
| h  hammer-on
| p  pull-off
| ~  vibrato
============================================================================
Tap to rate this tab
# A B C D E F G H I J K L M N O P Q R S T U V W X Y Z