Song name
# A B C D E F G H I J K L M N O P Q R S T U V W X Y Z

Brad Paisley - Mr Policeman tab

Mr. Policeman
Brad Paisley
5th Gear


Here is that great intro from 'Mr. Policeman'.
It's not easy but it is possible.
This one may take some practice!!!
If you want to pick it like Brad does then
I suggest you play everything in the G string 
with your index and the rest with your thumb.


E|-----------------|
B|-----------------|
G|-3p0---0-------0-|
D|-----0---3p0-----|
A|-------------5---|
E|-----------------|

E|-----------------|
B|-----------------|
G|-3p0---0-------0-|
D|-----0---3p0-----|
A|-------------5---|
E|-----------------|

E|-----------------|
B|-----------------|
G|-3p0---0-------0-|
D|-----0---3p0-----|
A|-------------5---|
E|-----------------|

E|---------------|
B|---------------|
G|---------------|
D|-3p0---0-------|
A|-----3---1p0---|
E|-------------3-|

E|----------|
B|----------|
G|------3-0-|
D|-3-5--3-0-|
A|-3-5------|
E|----------|

Questions?  Comments?
Corrections?
Get them to me with the above address.
Tap to rate this tab
 
# A B C D E F G H I J K L M N O P Q R S T U V W X Y Z