Song name
# A B C D E F G H I J K L M N O P Q R S T U V W X Y Z

Brand New - Degausser tab

Standard Tuning
Degausser by Brand New
Tabbed by Hana.

(Listen to song to get exact order/timing).

Please vote & comment!

Enjoy!


Intro/Verse
e|------------------------------------|
B|------------------------------------|
G|------------------------------------|
D|-9999999999999999999999999999999----|
A|-7777777777777777777777777777777----|
E|------------------------------------|

e|------------------------------------|
B|------------------------------------|
G|------------------------------------|
D|-7777777777777777777777777777777----|
A|-5555555555555555555555555555555----|
E|------------------------------------|

0:14
e|----------10~----7~----------|
B|-----8~----------------7b~---|
G|--/9~---99~----99~---99~-----|
D|-----------------------------|
A|-----------------------------|
E|-----------------------------|

0:17
e|-----------------5~-----7~----|
B|-----5~-----7~----------------|
G|--/7~---77~-----77~----77~----|
D|------------------------------|
A|------------------------------|
E|------------------------------|

0:54
(Just play around with C for a while)
e|-------33333333-----0000------------|
B|-------55555555-----0000------------|
G|-5555555555555555555555555555555----|
D|-5555555555555555555555555555555----| 
A|-3333333333333333333333333333333----|
E|------------------------------------|

0:54
(Instead of G-7, you can play D-12)
e|------------------------------------|
B|------------------------------------|
G|-------------------------7----------|
D|-7-9-9-9-9-9-7-9-9-9-9-9---9-7-0----| x4
A|------------------------------------|
E|------------------------------------|
PM*********************************

1:07
(Play around with Em & D)
e|------0000000000-----0000---000-----|
B|------8888888888-----000077777------|
G|-999999999999999-777777777777777----|
D|-999999999999999-777777777777777----| x2
A|-777777777777777-555555555555555----|
E|------------------------------------|

1:07
(Instead of G-7-7-6-6, you can play D-12-12-11-11)
e|------------------------------------------------------------------|
B|------------------------------------------------------------------|
G|-------------------------7-7-6-6----------------------------------|
D|-7-9-9-9-9-9-7-9-9-9-9-9---------------------------------5-5-4-4--| x2
A|---------------------------------5-7-7-7-7-7-5-7-7-7-7-7----------|
E|------------------------------------------------------------------|
PM*****************************************************************


0:20
e|------------------------------------|
B|------------------------------------|
G|------------------------------------|
D|-9999999999999999999999999999999----|
A|-7777777777777777777777777777777----|
E|------------------------------------|

e|------------------------------------|
B|------------------------------------|
G|------------------------------------|
D|-7777777777777777777777777777777----|
A|-5555555555555555555555555555555----|
E|------------------------------------|


1:34
(Just play around with C for a while)
e|-------33333333-----0000------------|
B|-------55555555-----0000------------|
G|-5555555555555555555555555555555----|
D|-5555555555555555555555555555555----| 
A|-3333333333333333333333333333333----|
E|------------------------------------|

1:34
(Instead of G-7, you can play D-12)
e|------------------------------------|
B|------------------------------------|
G|-------------------------7----------|
D|-7-9-9-9-9-9-7-9-9-9-9-9---9-7-0----| x4
A|------------------------------------|
E|------------------------------------|
PM*************************     ****


Chorus
1:47
(Heavy distortion, no tone)
e|----------|    |------------|
B|----------|    |------------|
G|-7/101010-|    |-4/-7-7-7-7-|
D|-7/101010-| x3 |-4/-7-7-7-7-| x3
A|-5/9-9-9--|    |-2/-5-5-5-5-|  
E|----------|    |------------|

1:47
(Instead of G-7, you can play D-12)
e|---------------------------|------------------------------|
B|-/12------/12-----12-13-12-|-/10------/10-------10-12-10--|
G|-----12-9----12-9----------|-----11-7-----11-7------------|
D|---------------------------|------------------------------| x2
A|---------------------------|------------------------------|
E|---------------------------|------------------------------|

2:00
e|---------/19--------------------|------------------------------|
B|-/12---------20-17---12-13-12---|-/10------/10-------10-12-10--|
G|-----12-9-----------------------|-----11-7-----11-7------------|
D|--------------------------------|------------------------------| x2
A|--------------------------------|------------------------------|
E|--------------------------------|------------------------------|

Verse
2:14
e|------------------------------------|
B|------------------------------------|
G|------------------------------------|
D|-9999999999999999999999999999999----|
A|-7777777777777777777777777777777----|
E|------------------------------------|

e|------------------------------------|
B|------------------------------------|
G|------------------------------------|
D|-7777777777777777777777777777777----|
A|-5555555555555555555555555555555----|
E|------------------------------------|

2:14
e|----------10~----7~----------|
B|-----8~----------------7b~---|
G|--/9~---99~----99~---99~-----|
D|-----------------------------|
A|-----------------------------|
E|-----------------------------|

2:17
e|-----------------5~-----7~----|
B|-----5~-----7~----------------|
G|--/7~---77~-----77~----77~----|
D|------------------------------|
A|------------------------------|
E|------------------------------|

2:27
(Instead of G-7-7-6-6, you can play D-12-12-11-11)
e|------------------------------------------------------------------|
B|------------------------------------------------------------------|
G|-------------------------7-7-6-6----------------------------------|
D|-7-9-9-9-9-9-7-9-9-9-9-9---------5-7-7-7-7-7-5-7-7-7-7-7--5-5-4-4-|
A|------------------------------------------------------------------|
E|------------------------------------------------------------------|
PM*****************************************************************

2:34
e|------------------------------------------------------------------|
B|------------------------------------------------------------------|
G|-------------------------7-7-6-6----------------------------------|
D|-7-9-9-9-9-9-7-9-9-9-9-9---------------------------------5-5-4-4--|
A|---------------------------------5-7-7-7-7-7-5-7-7-7-7-7----------|
E|------------------------------------------------------------------|
PM*****************************************************************

2:41
(Just play around with C for a while)
e|-------33333333-----0000------------|
B|-------55555555-----0000------------|
G|-5555555555555555555555555555555----|
D|-5555555555555555555555555555555----| 
A|-3333333333333333333333333333333----|
E|------------------------------------|

2:41
(Instead of G-7, you can play D-12)
e|------------------------------------|
B|------------------------------------|
G|-------------------------7----------|
D|-7-9-9-9-9-9-7-9-9-9-9-9---9-7-0----| x4
A|------------------------------------|
E|------------------------------------|
PM*************************  ******


Chorus
2:54
(Heavy distortion, no tone)
e|----------|    |------------|
B|----------|    |------------|
G|-7/101010-|    |-4/-7-7-7-7-|
D|-7/101010-| x3 |-4/-7-7-7-7-| x3
A|-5/9-9-9--|    |-2/-5-5-5-5-|  
E|----------|    |------------|

2:54
(Instead of G-7, you can play D-12)
e|---------------------------|------------------------------|
B|-/12------/12-----12-13-12-|-/10------/10-------10-12-10--|
G|-----12-9----12-9----------|-----11-7-----11-7------------|
D|---------------------------|------------------------------| x2
A|---------------------------|------------------------------|
E|---------------------------|------------------------------|

3:07
e|---------/19--------------------|------------------------------|
B|-/12---------20-17---12-13-12---|-/10------/10-------10-12-10--|
G|-----12-9-----------------------|-----11-7-----11-7------------|
D|--------------------------------|------------------------------| x2
A|--------------------------------|------------------------------|
E|--------------------------------|------------------------------|


3:20
e|------------------------------------|
B|------------------------------------|
G|-9999999999999999999999999999999----|
D|-9999999999999999999999999999999----|
A|-7777777777777777777777777777777----|
E|------------------------------------|

e|------------------------------------|
B|------------------------------------|
G|-7777777777777777777777777777777----|
D|-7777777777777777777777777777777----|
A|-5555555555555555555555555555555----|
E|------------------------------------|

3:34
e|----------------------------------------------------------------|
B|----------------------------------------------------------------|
G|-555555555555555555555555555555/7777b\4444444444444444444444----|
D|-555555555555555555555555555555/7777b\4444444444444444444444----|
A|-333333333333333333333333333333/5555b\2222222222222222222222----|
E|----------------------------------------------------------------|

3:48
(Play around with Em & D)
e|------0--00--00------0000-----------|
B|-------8-8888--8-----0--07--77------|
G|-999999999999999-777777777777777----|
D|-999999999999999-777777777777777----| x2
A|-777777777777777-555555555555555----|
E|------------------------------------|


I can barely hear the other guitar & can't tab it but just palm muting notes out of these two works.
e|----------10~----7~----------|
B|-----8~----------------7b~---|
G|--/9~---99~----99~---99~-----|
D|-----------------------------|
A|-----------------------------|
E|-----------------------------|

e|-----------------5~-----7~----|
B|-----5~-----7~----------------|
G|--/7~---77~-----77~----77~----|
D|------------------------------|
A|------------------------------|
E|------------------------------|


Transition 4:11
e|------|
B|------|
G|-4/16-|
D|-x/-x-|
A|-2/14-|
E|------|


Chorus
4:14
(Heavy distortion, no tone)
e|----------|    |------------|
B|----------|    |------------|
G|-7/101010-|    |-4/-7-7-7-7-|
D|-7/101010-| x3 |-4/-7-7-7-7-| x3
A|-5/9-9-9--|    |-2/-5-5-5-5-|  
E|----------|    |------------|

4:14
(Instead of G-7, you can play D-12)
e|---------------------------|------------------------------|
B|-/12------/12-----12-13-12-|-/10------/10-------10-12-10--|
G|-----12-9----12-9----------|-----11-7-----11-7------------|
D|---------------------------|------------------------------| x2
A|---------------------------|------------------------------|
E|---------------------------|------------------------------|

4:27
e|---------/19--------------------|------------------------------|
B|-/12---------20-17---12-13-12---|-/10------/10-------10-12-10--|
G|-----12-9-----------------------|-----11-7-----11-7------------|
D|--------------------------------|------------------------------| x2
A|--------------------------------|------------------------------|
E|--------------------------------|------------------------------|


4:41
e|----------------------------------------------------------------|
B|----------------------------------------------------------------|
G|-555555555555555555555555555555/7777b\4444444444444444444444----|
D|-555555555555555555555555555555/7777b\4444444444444444444444----|
A|-333333333333333333333333333333/5555b\2222222222222222222222----|
E|----------------------------------------------------------------|


Outro
4:45
e|------------------------------------|
B|------------------------------------|
G|------------------------------------|
D|-9999999999999999999999999999999----|
A|-7777777777777777777777777777777----|
E|------------------------------------|

e|------------------------------------|
B|------------------------------------|
G|------------------------------------|
D|-7777777777777777777777777777777----|
A|-5555555555555555555555555555555----|
E|------------------------------------|

4:45
e|----------10~----7~----------|
B|-----8~----------------7b~---|
G|--/9~---99~----99~---99~-----|
D|-----------------------------|
A|-----------------------------|
E|-----------------------------|

4:56
e|-----------------5~-----7~----|
B|-----5~-----7~----------------|
G|--/7~---77~-----77~----77~----|
D|------------------------------|
A|------------------------------|
E|------------------------------|
Tap to rate this tab
 
# A B C D E F G H I J K L M N O P Q R S T U V W X Y Z