Brantley Gilbert - Kick It In The Sticks tab

Artist : Brantley Gilbert
Song : Kick It In The Sticks
Album : Halfway to Heaven
Tabbed by: Ethan Lewis
Key -
b bend
x palm mute
p pull off
h hammer on

well, it took alot of work to tab this out. so i think its pretty much right.
Intro :
Guitar 1 plays this.


e--------------------------------------------------|
B--------------------------------------------------|
G--------------------------------------------------|
D-------7-5---------7-7-7-5---------7-5------------|
A-4-4-4-5-3--4-4-4--5-5-5-3---4-4-4-5-3--4-4-4-4---|
E-2-2-2------2-2-2------------2-2-2------2-2-2-2---|
                                         x x x x
Guitar 2 plays                                        2X
e--------------------------------------------------|
B--------6b-----------7b-------------6-7-6-8b------|
G--------------------------------------------------|
D--------------------------------------------------|
A--------------------------------------------------|
E--------------------------------------------------|


Verse 1
Guitar 1
e-----------------------------------------------------------------------|
B-----------------------------------------------------------------------|
G-----------------------------------------------------------------------|
D-----------------------------------------------------------------------|
A-4------------4-4-----------5-5-------6-6---------5-5------6-6---------|
E-2------------2-2-----------3-3-------4-6---------3-3------4-4---------|
"Welome To The Home of the Hillbilly..Land of Barbwire..whiskey

e--------------------------------------------------------------------------|
B--------------------------------------------------------------------------|
G--------------------------------------------------------------------------|
D--------------------------------------------------------------------------|
A-7-7---------5-5-----6-6-----4-4-------6-6-------------------5-5----------|
E-5-5---------3-3-----4-4-----2-2-------4-4-------------------3-3----------|
"Park your car....Stuck and grab ya beer..in the truck..goin down tonight

e--------------------------------------------------------------------------|
B--------------------------------------------------------------------------|
G--------------------------------------------------------------------------|
D--------------------------------------------------------------------------|
A---4-4-/-------9b-----6-6------6-6----------------------------------------|
E---2-2/--------7b-----4-4------4-4----------------------------------------|
"and its all on me.its byob .. igot all we need

Pre-Chorus :
e----------------------------------------------------------|
B----------------------------------------------------------|
G-3-3-3-3-3--5-5-5-5-5-------------------------------------|
D-4-4-4-4-4--6-6-6-6-6-------------------------------------|
A-4-4-4-4-4--6-6-6-6-6-------------------------------------|
E-2-2-2-2-2--4-4-4-4-4-------------------------------------|
Chorus
The chorus is just 3 chords from what i can tell
in this order. i dont know how many times you play each one
F# B Abm

Post Chorus
After The Chorus both guitars play the intro 1 time

Verse 2 is the same 4 power chords as verse 1.

Then the pre-chorus 1x . the chorus 1x. intro 1x

then the bridge
 which i am not toooo sure about
I think you just pick the B chord but along with that you might play
(below) that a few times. whatever works/souns best to you. you just have to find 
which was hard for me.
e----------------|
B----------------|
G---3-3-3--------|
D---3-3-3--------|
A---1-1-1--------|
E-0--------------|

then the solo
Guitar 1 plays its part in the intro while guitar 2 plays the solo which i did not tab.
then the chorus 1x.
then guitar 1 plays its part in the intro again while guitar 2 plays a second solo. and thats it!
enjoy!
Tap to rate this tab
 
# A B C D E F G H I J K L M N O P Q R S T U V W X Y Z