Song name
# A B C D E F G H I J K L M N O P Q R S T U V W X Y Z

Brantley Gilbert - Hell On Wheels tab

-----------------------------------------------------------------------------
			     Hell on Wheels - Brantley gilbert
-----------------------------------------------------------------------------
Tabbed by: Devin Shipp
Email: das352@msstate.edu

Tuning: Standard

e|-------------------------------------------|-------------------------------|
B|-------------------------------------------|-------------------------------|
G|---------4-----------------4-6brb -4-------|   ----------------------------|
D|--4/6-6-----6--------4/6-6---------4-4/6---|x8  ---------------------------|
A|---------------2---------------------------|   ----------------------------|
E|-----------------4-------------------------|-------------------------------|

e|-------------------------------------------------------|-------------------|
B|-------------------------------------------------------|-------------------|
G|-------------------------------------------------------|    ---------------|
D|-------6-66666----------------44-44------------66-64---| x2  --------------|
A|-6--4--4-44444------6-6-6666--22-22--4-4-4444--44-42---|    ---------------|
E|-4--2---------------4-4-4444---------2-2-2222----------|-------------------|

e|---------------------------------------------------------------------------|
B|---------------------------------------------------------------------------|
G|---------------------------------------------------------------------------|
D|-------4-4-------6-6-----------4-4---------6-------------------------------|
A|-6-6---2-2--4-4--4-4------6-6--2-2--6-4--4-4-------------------------------|
E|-4-4--------2-2-----------4-4-------4-2--2---------------------------------|

e|---------------------------------------------------------------------------|
B|---------------------------------------------------------------------------|
G|---------4-----------------4-6b-4------------------------------------------|
D|--4/6-6-----6--------4/6-6---------4-4/6-----------------------------------|
A|---------------2-----------------------------------------------------------|
E|-----------------4---------------------------------------------------------|

Repeat until solo then after play until end


************************************

| /   slide up
| \   slide down
| h   hammer-on
| p   pull-off
| ~   vibrato
| +   harmonic
| x   Mute note
| b   Bend
| pb  Pre-bend
| br  Bend release
| pbr Pre-bend release
| brb Bend release bend

************************************
Tap to rate this tab
 
# A B C D E F G H I J K L M N O P Q R S T U V W X Y Z