Song name
# A B C D E F G H I J K L M N O P Q R S T U V W X Y Z

Brantley Gilbert - Take It Outside tab

Take It Outside
Brantley Gilbert

Tuning: Drop C# : Db Ab Db Gb Bb eb (C# G# C# F# A# D#)

Intro/Verse
e--------------------------------------------|
B--------------------------------------------|
G--------------------------------------------|
D----------3p0--0-------0--------------------|
A-3h5--5-----------3-5----------------------|
E--0-----------------------------------------|

e--------------------------------------------|
B--------------------------------------------|
G--------------------------------------------|
D----------3p0--0-------5--------------------|
A-------5-------------5----------------------|
E--0----------------5------------------------|

e--------------------------------------------|
B--------------------------------------------|
G--------------------------------------------|
D----------3p0--0-------0--------------------|
A------5-----------3-5----------------------|
E--0-----------------------------------------|

e--------------------------------------------|
B--------------------------------------------|
G--------------------------------------------|
D----------3p0--0---------0------------------|
A-------5---------------0--------------------|
E--0----------------0h3----------------------|

Bridge (Distortion)
e------|-------------------------------------|
B-6---|--8--8--8--8--8--8--x-x-x------------|
G--5---|--7--7--7--7--7--7--x-x-x------------|
D--3---|--5--5--5--5--5--5--x-x-x------------|
A--3---|--5--5--5--5--5--5--x-x-x------------|
E--3---|--5--5--5--5--5--5--x-x-x------------|
          X  X  X  X                    Palm mute the X

Chorus
   D                     Cadd9
e--2-2-x-2-|----------|--3-3-x-3-|-----------|
B--3-3-x-3-|----------|--3-3-x-3-|-----------|
G--2-2-x-2-|----------|--0-0-x-0-|-----------|
D--0-0-x-0-|----------|--0-0-x-0-|-----------|
A--0-0-x-0-|--3-5-3-0-|--3-3-x-3-|--3-5-3-0--|
E--0-0-x-0-|--3-5-3-0-|--0-0-x-0-|--3-5-3-0--|

   G                     
e--3-3-x-3-|----------|--2-2-----------------|
B--3-3-x-3-|----------|--3-3-6-6---8-8-8-8--|
G--0-0-x-0-|----------|--2-0-5-5---7-7-7-7--|
D--0-0-x-0-|----------|--0-0-3-3---5-5-5-5--|
A--5-5-x-5-|--3-5-3-0-|--0-0-3-3---5-5-5-5--|
E--5-5-x-5-|--3-5-3-0-|--0-0-3-3---5-5-5-5--|


This tab is based on the lesson of Mike Gross.

Enjoy :D
Tap to rate this tab
# A B C D E F G H I J K L M N O P Q R S T U V W X Y Z