Guitaretab - guitar tabs
Song name
# A B C D E F G H I J K L M N O P Q R S T U V W X Y Z

Brassens Georges - Les Copains Dabord tab

1. Intro guitar 1
e-----------------------------------------------10---12--13--12---|
b-------------10--------------10-------------10-------------------|
g-10--12--13------12--10--12--------12-10-12----------------------|
d-----------------------------------------------------------------|
a-----------------------------------------------------------------|
e-----------------------------------------------------------------|

e-10-----------------------------------------------------|
b----13--10------------------------10--------------------|
g------------12--12--12------12-10-----12--10------------|
d------------------------12--------------------9---------|
a--------------------------------------------------------|
e--------------------------------------------------------|

e--------------------------------------------------------------|
b--------------------------------------------10--10--9---------|
g----------9--10----10-9-10------10-9-------------------12-----|
d--11--12-------------------12--------12-11--------------------|
a--------------------------------------------------------------|
e--------------------------------------------------------------|

e-----------------------------------------------|
b--11-10------------------------10--------------|
g---------12-10--10--10------------12----9-10---|
d------------------------12---9-------12--------|
a-----------------------------------------------|
e-----------------------------------------------|
[ Tab from: http://www.guitaretab.com/b/brassens-georges/2322.html ]
--------------------------------------------------------------------------------
2. Intro guitar 2
e----1---1---1---1---1---1---1---1---3---3---3---3---3---3---3---3-|
b----1---1---1---1---1---1---1---1---3---3---3---3---3---3---3---3-|
g----2---2---2---2---2---2---2---2---4---4---4---4---4---4---4---4-|
d----3---3---3---3---3---3---3---3---5---5---5---5---5---5---5---5-|
a--3---3---3---3---3---3---3---3---5---5---5---5---5---5---5---5---|
e--1---1---1---1---1---1---1---1---3---3---3---3---3---3---3---3---|

e----6---6---6---6---5---5---5---5---5---5---3-----1------------5-|
b----6---6---6---6---5---5---5---5---6---6---3---5-1------------5-|
g----7---7---7---7---6---6---6---6---7---7---4---5-2------------6-|
d----8---8---8---8---7---7---7---7---7---7---5---5-3------------7-|
a--8---8---8---8---7---7---7---7---5---5---5---3---3------------7-|
e--6---6---6---6---5---5---5---5-----------3-------1------------5-|

--------------------------------------------------------------------------------
3. Play the riff in loop
e----2---2---2---2---2---2---2---2---0---0---0---0---0---0---0---0-|
b----3---3---3---3---3---3---3---3---3---3---3---3---3---3---3---3-|
g----2---2---2---2---2---2---2---2---1---1---1---1---1---1---1---1-|
d--0---0---0---0---0---0---0---0-----2---2---2---2---2---2---2---2-|
a----------------------------------2---2---2---2---2---2---2---2---|
e----------------------------------0---0---0---0---0---0---0---0---|

e----3---3---3---3---2---2---2---2---2---2---0---3----2-2--2--2--2-|
b----3---3---3---3---2---2---2---2---3---3---3---2----3-3--3--3--3-|
g----4---4---4---4---3---3---3---3---4---4---1---2----2-2--2--2--2-|
d----5---5---5---5---4---4---2---2---4---4---2---2-0---------------|
a--5---5---5---5---4---4---4---4---2---2-----2-0-------------------|
e--3---3---3---3---2---2---2---2-----------0-----------------------|
Related for Les Copains Dabord tab