Song name
# A B C D E F G H I J K L M N O P Q R S T U V W X Y Z

Brazen Abbot - Twist Of Fate tab

Author/Artist: Brazen Abbot
Title: Twist of Fate
Album: Eye of the Storm
Transcribed by: Beanboy
Email: e101087@hotmail.com

First ever tab - please forgive any mistakes!


------------------------------------------------------------------------------|
------------------------------------------------------------------------------|
------------------------------------------------------------------------------|
------------------------------------------------------------------------------|
-----------5-5h7--------------------------------------------------------------|
--5-5-5--5--------------------------------------------------------------------|
 Acoustic Intro

------------------------------------------------------------------------------|
------------------------------------------------------------------------------|
-------5-7-5-4-2-------5-7-5-4-2-------5-7-5-4-2------------------------------|
-------5-7-5-4-2-------5-7-5-4-2-------5-7-5-4-2---3-3--5-5-------------------|
-x-x-x-----------x-x-x-----------x-x-x-------------3-3--5-5-------------------|
---------------------------------------------------1-1--3-3-------------------|
 Riff  (repeat twice)

------------------------------------------------------------------------------|
------------------------------------------------------------------------------|
---------------------9--7-----5-4--------5-7-5-4-2-------5-7-5-4-2------------|
-5---------------3---9--7-----5-4--------5-7-5-4-2-------5-7-5-4-2------------|
-5---------------3---7--5-----3-2--x-x-x-----------x-x-x----------------------|
-3---------------1------------------------------------------------------------|
 Verse (repeat twice)

------------------------------------------------------------------------------|
------------------------------------------------------------------------------|
------------------------------------9-----------------------------------------|
-2-2--2-2--3-3--3-3--4-4--4-4--5-5--9-----------------------------------------|
-2-2--2-2--3-3--3-3--4-4--4-4--5-5--7-----------------------------------------|
-0-0--0-0--1-1--1-1--2-2--2-2--3-3--------------------------------------------|
 Pre Chorus

------------------------------------------------------------------------------|
------------------------------------------------------------------------------|
-------5-7-5-4-2-------5-7-5-4-2-------7-7--------5-7-5-4-2-------------------|
-------5-7-5-4-2-------5-7-5-4-2--5-5--7-7--------5-7-5-4-2-------------------|
-x-x-x-----------x-x-x------------5-5--5-5--x-x-x-----------------------------|
----------------------------------3-3-----------------------------------------|
 Chorus

------------------------------------------------------------------------------|
------------------------------------------------------------------------------|
-------5-7-5-4-2-------5-7-5-4-2-------7-7------------------------------------|
-------5-7-5-4-2-------5-7-5-4-2--5-5--7-7--2---------------------------------|
-x-x-x-----------x-x-x------------5-5--5-5--2---------------------------------|
----------------------------------3-3-------0---------------------------------|
 Chorus (cont)


------------------------------------------------------------------------------|
------------------------------------------------------------------------------|
-------5-7-5-4-2-------5-7-5-4-2-------5-7-5-4-2------------------------------|
-------5-7-5-4-2-------5-7-5-4-2-------5-7-5-4-2---3-3--5-5-------------------|
-x-x-x-----------x-x-x-----------x-x-x-------------3-3--5-5-------------------|
---------------------------------------------------1-1--3-3-------------------|
 Riff  (repeat once)


+ Verse (repeat twice)
+ Pre Chorus
+ Chorus


------------------------------------------------------------------------------|
------------------------------------------------------------------------------|
----5--6--7--6--7--8--9-------------------------------------------------------|
-2--5--6--7--6--7--8--9-------------------------------------------------------|
-2--3--4--5--4--5--6--7-------------------------------------------------------|
-0----------------------------------------------------------------------------|
 Break before solo

------------------------------------------------------------------------------|
------------------------------------------------------------------------------|
------------------------------------------------------------------------------|
-9-----------9-----------9-----------9-----------7----4-----------------------|
-9-----------9-----------9-----------9-----------7----4-----------------------|
-7----0-3-0--7----0-3-0--7----0-3-0--7----0-3-0--5----2-----------------------|
 Under solo

------------------------------------------------------------------------------|
------------------------------------------------------------------------------|
-----6------6------7------7------8------8------9-----9-----9-----9--9---------|
-----6------6------7------7------8------8------9-----9-----9-----9--9---------|
-444----444----555----555----666----666----777---777---777---777----7---------|
------------------------------------------------------------------------------|
 Under solo (cont)

------------------------------------------------------------------------------|
------------------------------------------------------------------------------|
-------5-7-5-4-2-------5-7-5-4-2-------7-7--------5-7-5-4-2-------------------|
-------5-7-5-4-2-------5-7-5-4-2--5-5--7-7--------5-7-5-4-2-------------------|
-x-x-x-----------x-x-x------------5-5--5-5--x-x-x-----------------------------|
----------------------------------3-3-----------------------------------------|
Outro Chorus (repeat three times)
------------------------------------------------------------------------------|
------------------------------------------------------------------------------|
-------5-7-5-4-2-------5-7-5-4-2----------7---7----2--2-----2-----------------|
-------5-7-5-4-2-------5-7-5-4-2--5---5---7---7----2--2-----2-----------------|
-x-x-x-----------x-x-x------------5---5---5---5----0--0-----0-----------------|
----------------------------------3---3---------------------------------------|
Outro Chorus (cont)

#----------------------------------PLEASE NOTE--------------------------------#
#This file is the author's own work and represents their interpretation of the#
#song. You may only use this file for private study, scholarship, or research.#
#-----------------------------------------------------------------------------#
#-- File created with Instab - http://www.pconline.com/~smcarey/instab.html --#
#-----------------------------------------------------------------------------#
Tap to rate this tab
 
# A B C D E F G H I J K L M N O P Q R S T U V W X Y Z