Song name
# A B C D E F G H I J K L M N O P Q R S T U V W X Y Z

Brazzaville - Bosphorus tab

Capo on the 4th fret

Verse

        x3
--------------------|-------------|--------------------|-------------------|
--------------------|-------------|--------------------|-------------------|
--------------------|-------------|--------------------|-0-0-0-------------|
-------0-2-3--3-2-2-|-0-0-2-0-----|-------0-2-3--3-2-2-|-------3-2-0--3-2-2|
-0-2-3--------------|---------3-2-|-0-2-3--------------|-------------------|
--------------------|-------------|--------------------|-------------------|

--------------------|--------------|
--------------------|--------------|
--------------------|--------------|
-------0-2-3--3-2-2-|-0-0-2-0------|
-0-2-3--------------|---------3-2--|
--------------------|--------------|

Chorus

----------------------------------------|-------------------------------------|
----------------------------------------|-------------------------------------|
----------------------------------------|-----------------------------2-0-----|
-----------0-2-3-2-0--------0-2-0-------|--------0-2-3-2-0--------0-2-----3-2-|
(2)-3-3-3------------3-2--3-------3-2---|-3-3-3------------3-2--3-------------|
--------------------------------------3-|-------------------------------------|

           Outro
---------|-----------------|
---------|-----------------|
-0-------|-----------------|
---3-2-0-|-----------------|
---------|-3-3-3-2-0-------|
---------|-----------3-1-0-|

Am                      F      Am
 She was married to the Bosphorus
                                F      Am
 She threw her ring in then she blew a kiss
                     F     Am
 To the Ottomans and Byzantines
 Dm                Em
 Lying beneath the sea

 She wore a pink and yellow summer dress
 She kept her hair just like a poetess
 She traveled all the way to Germany
 The trains and the cold, dark sea

     Am                           G
 The amber glow of a morning cigarette
                 Em
 On the Istiklal Cadessi
     Am                             G
 The vapor trails and the tiny minerettes
                        Em     Am G Em
 All the domes in silhouette
Tap to rate this tab
# A B C D E F G H I J K L M N O P Q R S T U V W X Y Z