Guitaretab - guitar tabs
Song name
# A B C D E F G H I J K L M N O P Q R S T U V W X Y Z
Home / B / Bread / Ann tab

Bread - Ann tab

ANN(BREAD)

(DAVID GATES)

Tabbed by GBM------All comments welcome at gbm1@talktalk.net

Intro
G
|----------3----3----|----------3---3---3---3---|
|----------0----1----|----------0---1---1---0---|
|----------0----0----|----------0---0---0---0---|   Repeat once more
|-----0----0----2-----|-----0---0---2---2---0---|
|--------------------|--------------------------|
|-3-------------------|-3-----------------------|

Verse 1
G
|-----3---3---3---3---3---3-------|
|-----0---0---0---1---1---0-------|
|-----0---0---0---0---0---0-------|   repeat 4 times
|-----0---0---0---2---2---0-------|
|---------------------------------|
|-3-------------------------------|
Ann a-sleepin' on my bed,
G(twice)                                     D(twice)
|-----3---3---3---3---3---3-|        |-------2---2---2---3---3---2------|
|-----0---0---0---1---1---0-|        |-------3---3---3---3---2---3------|
|-----0---0---0---0---0---0-|        |-------2---2---2---2---3---2------|
|-----0---0---0---2---2---0-|        |--0-------------------------------|
|---------------------------|        |----------------------------------|
|-3-------------------------|        |----------------------------------|
[ Tab from: http://www.guitaretab.com/b/bread/2328.html ]
Hair a-tumblin' 'round your   head,
C(twice)                                Em(twice)
|------0---0--0---3---3---0-|    |------3---3---3----2---2----0------|
|------1---1--1---1---1---1-|    |------0---0---0----0---0----0------|
|------0---0--0---0---0---0-|    |------0---0---0----0---0----0------|
|------2---2--2---2---2---2-|    |------2---2---2----2---2----2------|
|--3------------------------|    |------2---2---2----2---2----2------|
|---------------------------|    |-0---------------------------------|
You will always be a             part of me,     when I
Am7(twice)
|-----0---0---0---0----0---0-|   |--2--2--2--3--5--8--8--8---7----5-|
|-----1---1---1---1----1---1-|   |--3--3--3--3--5--8--8--8---7----5-|
|-----0---0---0---0----0---0-|   |--2--2--2--4--5--9--9--9---7----5-|
|-----2---2---2---2----2---2-|   |--0--0--0--0--0--0--0--0---0----0-|
|-0--------------------------|   |----------------------------------|
|----------------------------|   |----------------------------------|

look in your eyes, it's my---see,

Verse 2
G
Ann I wonder how you knew,
G                           D
I needed someone just like you,
C                      Em
Were you on a beam of guiding light,
Am7                    D7                   G
That came in my life, late that September night,

Mid 8
                         Em7 + F#
                        |-2--2---2---2---2---2---2---|
                        |-3--3---3---3---3---3---3---|
                        |-0--0---0---0---0---0---0---|
                        |-0--0---0---0---0---0---0---|
                        |-2--2---2---2---2---2---2---|
C                    |-x--x---x---x---x---x---x------|
And though I try, to hold back the years,
C                  G
I cannot hold the dawn,
C                        (As above for "hold back the years")
And so I try, to hold back the tears,
Cm                         Am7----D
When love was grown up and gone,

Verse 3
G
Ann I'll love you till I die,
G                           D
And when you hear this lullaby,
C                             Em
I'll be with you though we're far apart,
                                        D7(-F#)
                                       |------------0-----------------|
                                       |--------1------1--------------|
                                       |----2--------------2----------|
                                       |-0----------------------------|
                                       |------------------------------|
                                       |------------------------------|
    Am7
And you'll be with me, right here inside my heart,

Solo
C                             Em   Cmaj 7
I'll be with you though we're far apart,
    Am7                       (As above)      G
And you'll be with me, right here inside my heart.
Related for Ann tab
Advertisement will be closed in 10 seconds