Song name
# A B C D E F G H I J K L M N O P Q R S T U V W X Y Z

Bread - Everything I Own tab

-------------------------------------------------------------------------------
			     Everything I Own - Bread
-------------------------------------------------------------------------------
Tabbed by:
Email:

Tuning: EADGBe

Verse:

e|--3-3--3-5---7------|----------|------0--|----------|----------------------|
B|---------------8----|----5-----|-3--1----|--3--1--3-|----------------------|
G|--------------------|-7------5-|---------|----------|----------------------|
D|--------------------|----------|---------|----------|----------------------|
A|--------------------|----------|---------|----------|----------------------|
E|--------------------|----------|---------|----------|----------------------|

e|--3-3--3-5---7------|----------|------0--|----------|----------------------|
B|---------------8----|----5-----|-3--1----|--3--1--3-|----------------------|
G|--------------------|-7------5-|---------|----------|----------------------|
D|--------------------|----------|---------|----------|----------------------|
A|--------------------|----------|---------|----------|----------------------|
E|--------------------|----------|---------|----------|----------------------|

Pre - Chorus :

e|--1--1----0------------------|--1--1---0-----------------|-----------------|
B|------------3---1--1-----3---|-----------3---1--1-----3--|-----------------|
G|---------------------2-------|--------------------2------|-----------------|
D|-----------------------------|---------------------------|-----------------|
A|-----------------------------|---------------------------|-----------------|
E|-----------------------------|---------------------------|-----------------|

Chorus :

e|----------------------------1----|--1--1--1--1---0--------1------|---------|
B|-----6--6--6--6---5------------3-|------------------1---------3--|---------|
G|---------------------5--2--------|---------------------2---------|---------|
D|--5------------------------------|-------------------------------|---------|
A|---------------------------------|-------------------------------|---------|
E|---------------------------------|-------------------------------|---------|

e|--1--1--1--1---0---------1------|------------------------|-----------------|
B|------------------1----------3--|--3--3--3---1-----------|-----------------|
G|---------------------2----------|---------------2-----0--|-----------------|
D|--------------------------------|------------------3-----|-----------------|
A|--------------------------------|------------------------|-----------------|
E|--------------------------------|------------------------|-----------------|

2nd Verse :

e|--3-3--3-5---7------|----------|------0--|----------|----------------------|
B|---------------8----|----5-----|-3--1----|--3--1--3-|----------------------|
G|--------------------|-7------5-|---------|----------|----------------------|
D|--------------------|----------|---------|----------|----------------------|
A|--------------------|----------|---------|----------|----------------------|
E|--------------------|----------|---------|----------|----------------------|

e|-----3--3--3---3\5---7--8--7--5--3-0--|-----0---------------0--|-----------|
B|--------------------------------------|--3-----3-----1---1-----|-----------|
G|--0-----------------------------------|-----------2------------|-----------|
D|--------------------------------------|------------------------|-----------|
A|--------------------------------------|------------------------|-----------|
E|--------------------------------------|------------------------|-----------|

Pre - Chorus :

e|--1--1----0------------------|--1--1---0-----------------|-----------------|
B|------------3---1--1-----3---|-----------3---1--1-----3--|-----------------|
G|---------------------2-------|--------------------2------|-----------------|
D|-----------------------------|---------------------------|-----------------|
A|-----------------------------|---------------------------|-----------------|
E|-----------------------------|---------------------------|-----------------|

Chorus :

e|----------------------------1----|--1--1--1--1---0--------1------|---------|
B|-----6--6--6--6---5------------3-|------------------1---------3--|---------|
G|---------------------5--2--------|---------------------2---------|---------|
D|--5------------------------------|-------------------------------|---------|
A|---------------------------------|-------------------------------|---------|
E|---------------------------------|-------------------------------|---------|

e|--1--1--1--1---0---------1------|------------------------|-----------------|
B|------------------1----------3--|--3--3--3---1-----------|-----------------|
G|---------------------2----------|---------------2-----0--|-----------------|
D|--------------------------------|------------------3-----|-----------------|
A|--------------------------------|------------------------|-----------------|
E|--------------------------------|------------------------|-----------------|

Bridge:

e|----------0--0--1--0--|----0--0--1--0--|-----0--0--1--0---5--8--5--|-------|
B|--1---3---------------|--1-------------|--1------------------------|-------|
G|----------------------|----------------|---------------------------|-------|
D|----------------------|----------------|---------------------------|-------|
A|----------------------|----------------|---------------------------|-------|
E|----------------------|----------------|---------------------------|-------|

e|-----0--1--1--3--1--|-----0--1--1--3--1--|----0--1--1---3--1--0------------|
B|--3-----------------|--3-----------------|--3---------------------3--1--3--|
G|--------------------|--------------------|---------------------------------|
D|--------------------|--------------------|---------------------------------|
A|--------------------|--------------------|---------------------------------|
E|--------------------|--------------------|---------------------------------|


| /  slide up
| \  slide down
| h  hammer-on
| p  pull-off
| ~  vibrato
| +  harmonic
| x  Mute note
===============================================================================
Tap to rate this tab
# A B C D E F G H I J K L M N O P Q R S T U V W X Y Z