Song name
# A B C D E F G H I J K L M N O P Q R S T U V W X Y Z

Break Even - Run For Your Life tab

Run For Your Life
Break Even
The Bright Side

Drop C# tuning

0:00 - 0:25
-------------------------------------------------------------------|
-------------------------------------------------------------------|
-------------------------------------------------------------------|
------------------------------------------------------3-3-----0-0--|
------5-----5---5----5-----5----5-----5-----5---5-3-3-----1-1------|
--0-0---0-0---0---0-0---0-0---0---0-0---0-0---0--------------------|

-------------------------------------------------------------------|
-------------------------------------------------------------------|
-------------------------------------------------------------------|
------------------------------------------------------3-3----------|
------5-----5---1----5-----5----0-----5-----5---5-3-3-----1--------|
--0-0---0-0---0---0-0---0-0---0---0-0---0-0---0--------------------|


0:25 - 0:38
-------------------------------------------------------------------|
-------------------------------------------------------------------|
-------------------------------------------------------------------|
------------------------------------------------------3-3-----0-0--|
------5-----5---5----5-----5----5-----5-----5---5-3-3-----1-1------|
--0-0---0-0---0---0-0---0-0---0---0-0---0-0---0--------------------|

-------------------------------------------------------------------|
-------------------------------------------------------------------|
-------------------------------------------------------------------|
------------------------------------------------------3-3----------|
------5-----5---5----5-----5----5-----5-----5---5-3-3-----1--------|
--0-0---0-0---0---0-0---0-0---0---0-0---0-0---0--------------------|


0:38 - 0:51
-----------------------------------------------------------8-------|
---------------------------------------------------8---------------|
--5-7-7-7-7-7-7-5-5-7-7-7-7-7-7-5-5-7-7-7-7-7-7-7------------------|
-------------------------------------------------------------------|
--3-5-5-5-5-5-5-3-3-5-5-5-5-5-5-3-3-5-5-5-5-5-5-5------------------|
-------------------------------------------------------------------|


0:51 - 1:03
-------------------------------------------------------------------|
-------------------------------------------------------------------|
--7-7-7-7-7-5-5-5-7-7-7-7-7-5-5-5-7-7-7-7-7-5-5-5-5-5-5-5-5-5-5-5--|
-------------------------------------------------------------------|
--5-5-5-5-5-3-3-3-5-5-5-5-5-3-3-3-5-5-5-5-5-3-3-3-3-3-3-3-3-3-3-3--|
-------------------------------------------------------------------|
  . . . . . . . . . . . . . . . . . . . . . . . . . . .


1:03 - 1:17
-------------------------------------------------------------------|
-------------------------------------------------------------------|
--7-7-7-7-7-5-5-5-7-7-7-7-7-5-5-5-7-7-7-7-7-5-5-5-5-5-5-5-5-5-5-5--|
-------------------------------------------------------------------|
--5-5-5-5-5-3-3-3-5-5-5-5-5-3-3-3-5-5-5-5-5-3-3-3-3-3-3-3-3-3-3-3--|
-------------------------------------------------------------------|


1:17
----------|
----------|
--7-------|
----------|
--5-------|
----------|


1:20 - 1:45
-------------------------------------------------------------------|
-------------------------------------------------------------------|
-------------------------------------------------------------------|
------------------------------------------------------3-3-----0-0--|
------5-----5---5----5-----5----5-----5-----5---5-3-3-----1-1------|
--0-0---0-0---0---0-0---0-0---0---0-0---0-0---0--------------------|

-------------------------------------------------------------------|
-------------------------------------------------------------------|
-------------------------------------------------------------------|
------------------------------------------------------3-3----------|
------5-----5---5----5-----5----5-----5-----5---5-3-3-----1--------|
--0-0---0-0---0---0-0---0-0---0---0-0---0-0---0--------------------|

-----------------------------------------------------------8-------|
---------------------------------------------------8---------------|
--5-7-7-7-7-7-7-5-5-7-7-7-7-7-7-5-5-7-7-7-7-7-7-7------------------|
-------------------------------------------------------------------|
--3-5-5-5-5-5-5-3-3-5-5-5-5-5-5-3-3-5-5-5-5-5-5-5------------------|
-------------------------------------------------------------------|


1:45 - 2:15
-----------------------------------------------------------|
------------------------------------------------------3-3--|
---------2-------------------------------------------------|
--0------0------3/5\3-3\2-3-0-0-------0-------0------------|
--0------0----------------3-0-0-------0-------0------------|
--0--0-0-0--0-0-----------3-0-0-0-0-0-0-0-0-0-0-0-0-0------|
     . .    . .                 . . .   . . .   . . .

-----------------------------------------------------------|
--------------------------8--------------7----------9------|
---------2-------------------------------------------------|
--0------0------3/5\3-3\2-3--------------5----------7------|
--0------0-------------------------------------------------|
--0--0-0-0--0-0--------------------------------------------|
     . .    . .

-----------------------------------------------------------|
------------------------------------------------------3-3--|
---------2-------------------------------------------------|
--0------0------3/5\3-3\2-3-0-0-------0-------0------------|
--0------0----------------3-0-0-------0-------0------------|
--0--0-0-0--0-0-----------3-0-0-0-0-0-0-0-0-0-0-0-0-0------|
     . .    . .                 . . .   . . .   . . .

-----------------------------------------------------------|
--------------------------8--------------9----------7------|
---------2-------------------------------------------------|
--0------0------3/5\3-3\2-3--------------7----------5------|
--0------0-------------------------------------------------|
--0--0-0-0--0-0--------------------------------------------|
     . .    . .


2:10 - 2:50   (soft guitar, play each bar 4 times,
if it doesn't sound right play the last two bars over and over)
---------|---------|---------|---------|
------3--|------3--|------3--|------3--|
------2--|------2--|------2--|------2--|
---------|---------|--0-0----|---------|
--3-3----|--1-1----|---------|--1-1----|
---------|---------|---------|---------|

2:50 - 3:16
------------------------------------------------------|
--6--------8--10------------6--------8--10------13----|
------------------------------------------------------|
------------------------------------------------------|
------------------------------------------------------|
------------------------------------------------------|

PLAY CHORUS AGAIN.

PLEASE COMMENT, RATE, CHECK MY OTHER TABS.
Tap to rate this tab
 
# A B C D E F G H I J K L M N O P Q R S T U V W X Y Z