Song name
# A B C D E F G H I J K L M N O P Q R S T U V W X Y Z

Breaking Benjamin - I Will Not Bow tab

Breaking Benjamin
I Will Not Bow
Tabbed by U B the band
Tuning Bb F Bb Eb G C

Legend
h-hammer on                  p-pull off

Intro: Guitar 1 (Distorted with Wah) BEN PLAY 2 TIMES
 C|-------------------------------------------------------------------|
 G|-------------------------------------------------------------------|
Eb|----------------------------5--------------------------------------|
Bb|--0-h2--2---0-h2--2---3-p2----------0-h2--2---0-h2--2---------5----|
 F|-------------------------------------------------------------------|
Bb|-------------------------------------------------------------------|
                                                                      |
Intro: Guitar 2 (Distorted) AARON PLAY 2 TIMES                        |
 C|-------------------------------------------------------------------|
 G|--0-0-5-0-0-3-0-0-1-0-0-0-0---------0-0-5-0-0-3-0-0-1-0-0-0-0------|
Eb|----------------------------2h4-2h4---------------------------2----|
Bb|-------------------------------------------------------------------|
 F|-------------------------------------------------------------------|
Bb|-------------------------------------------------------------------|

Intro: Guitars 1 & 2 (Distorted)
 C|-------------------------------------------------------------------|
 G|-------------------------------------------------------------------|
Eb|-------------------------------------------------------------------|
Bb|-------------------------------------------------------------------|
 F|--0--2--2--0--3--2--2--0--2--3--3---0--2--2--0--3--2--2--0--5------|
Bb|--0--2--2--0--3--2--2--0--2--3------0--2--2--0--3--2--2--0--5------|

Intro: Guitar 1 (Distorted)
 C|-------------------------------------------------------------------|
 G|-------------------------------------------------------------------|
Eb|-------------------------------------------------------------------|
Bb|--10--------10--------10---10------7---7------------0--2--3--2-----|
 F|--10--------10--------10---10------7---7------------0--2--3--2-----|
Bb|--10--------10--------10---10------7---7---------7--0--2--3--2-----|
                                                                      |
Intro: Guitar 2 (Distorted)                                           |
 C|-------------------------------------------------------------------|
 G|--13--------12--------------------------------------10-12-13-12----|
Eb|----------------------12-----------9-------------12----------------|
Bb|-------------------------------------------------------------------|
 F|-------------------------------------------------------------------|
Bb|-------------------------------------------------------------------|

Verse 1: Guitar 1 (Distorted)
 C|-------------------------------------------------------------------|
 G|-------------------------------------------------------------------|
Eb|---------------------------------------5---------------------------|
Bb|-(2)-----------------------------------5------------------0--------|
 F|-(2)-----------------------------------3------------------0--------|
Bb|-(2)------------------------------------------------------0--------|

Verse 1: Guitar 1 (Distorted)
 C|-------------------------------------------------------------------|
 G|-------------------------------------------------------------------|
Eb|--4------------------------------------5---------------------------|
Bb|--2------------------------------------5------------------0--------|
 F|--2------------------------------------3------------------0--------|
Bb|--2-------------------------------------------------------0--------|

Verse 1: Guitar 1 (Distorted)
 C|-------------------------------------------------------------------|
 G|-------------------------------------------------------------------|
Eb|-------------------------------------------------------------------|
Bb|-------------------------------------------------------------------|
 F|--2---2---2-------------5---------2---2---2-------------5----------|
Bb|--2---2---2-------0h2h3---3p2p0---2---2---2-------0h2h5------------|

Verse 1: Guitar 1 (Distorted)
 C|-------------------------------------------------------------------|
 G|-------------------------------------------------------------------|
Eb|-------------------------------------------------------------------|
Bb|--5---5---5--------------------------------------------------------|
 F|--3---3---3-----------------------0---0---0------------------------|
Bb|------------------0h2h3-5p0-3p2---0---0---0-------0h2p0-3h5p2------|

Verse 1: Guitar 1 (Distorted)
 C|-------------------------------------------------------------------|
 G|-------------------------------------------------------------------|
Eb|-------------------------------------------------------------------|
Bb|-------------------------------------------------------------------|
 F|--2---2---2-------------5---------2---2---2-------------5----------|
Bb|--2---2---2-------0h2h3---3p2p0---2---2---2-------0h2h5------------|

Verse 1: Guitar 1 (Distorted)
 C|-------------------------------------------------------------------|
 G|-------------------------------------------------------------------|
Eb|-------------------------------------------------------------------|
Bb|--5---5---5--------------------------------------------------------|
 F|--3---3---3-----------------------0---0---0------------------------|
Bb|------------------0h2h3-5p0-3p2---0---0---0-------0h2p0-3h5p2------|

Pre Chorus: Guitar 1 (Distorted)
 C|-------------------------------------------------------------------|
 G|-------------------------------------------------------------------|
Eb|--5----------------7----------------5----------------7-----------7-|
Bb|--5----------------7----------------5----------------7-----------0-|
 F|--3----------------0----------------3----------------0-----------0-|
Bb|-------------------0---------------------------------0-----------0-|

Chorus: Guitar 1 (Distorted) PLAY CHORUS 2 TIMES
 C|------------0--------------------------------0---------------------|
 G|------------5--------------------------------0---------------------|
Eb|------------4--------------------------------x---------------------|
Bb|--2---2---2-2----0---0---0-0---0-10--10--10-10--10--10--10-10------|
 F|--2---2---2-2----0---0---0-0---0-10--10--10-10--10--10--10-10--0---|
Bb|--2---2---2-2----0---0---0-0---0-10--10--10-10--10--10--10-10--0---|

Post Chorus: Guitars 1 & 2 (Distorted)
 C|-------------------------------------------------------------------|
 G|-------------------------------------------------------------------|
Eb|-------------------------------------------------------------------|
Bb|-------------------------------------------------------------------|
 F|--0--2--2--0--3--2--2--0--2--3--3---0--2--2--0--3--2--2--0--5------|
Bb|--0--2--2--0--3--2--2--0--2--3------0--2--2--0--3--2--2--0--5------|

Post Chorus: Guitar 1 (Distorted)
 C|-------------------------------------------------------------------|
 G|-------------------------------------------------------------------|
Eb|-------------------------------------------------------------------|
Bb|--10--------10--------10---10------7---7---------7--x-x-x-3--2-----|
 F|--10--------10--------10---10------7---7---------7--x-x-x-3--2-----|
Bb|--10--------10--------10---10------7---7---------7--x-x-x-3--2-----|
                                                                      |
Post Chorus: Guitar 2 (Distorted)                                     |
 C|-------------------------------------------------------------------|
 G|--13--------12--------------------------------------10-12-13-12----|
Eb|----------------------12-----------9-------------12----------------|
Bb|-------------------------------------------------------------------|
 F|-------------------------------------------------------------------|
Bb|-------------------------------------------------------------------|

Verse 2: Guitar 1 (Distorted)
 C|-------------------------------------------------------------------|
 G|-------------------------------------------------------------------|
Eb|---------------------------------------5---------------------------|
Bb|-(2)-----------------------------------5------------------0--------|
 F|-(2)-----------------------------------3------------------0--------|
Bb|-(2)------------------------------------------------------0--------|

Verse 2: Guitar 1 (Distorted)
 C|-------------------------------------------------------------------|
 G|-------------------------------------------------------------------|
Eb|--------------------x-x-------------------x--------x-x-------------|
Bb|--------------------x-x-0--4--5----5-5-5--x5--5-5--x-x-0--5--4-----|
 F|--2-2-2--2-2--2-2---x-x-0--4--5----3-3-3--x3--3-3--x-x-0--5--5-----|
Bb|--2-2-2--2-2--2-2---x-x-0--4--5-----------x--------x-x-0--5--4-----|

Pre Chorus: Guitar 1 (Distorted)
 C|-------------------------------------------------------------------|
 G|-------------------------------------------------------------------|
Eb|--5----------------7----------------5----------------7-----------7-|
Bb|--5----------------7----------------5----------------7-----------0-|
 F|--3----------------0----------------3----------------0-----------0-|
Bb|-------------------0---------------------------------0-----------0-|

Chorus: Guitar 1 (Distorted) PLAY 2 TIMES
 C|------------0--------------------------------0---------------------|
 G|------------5--------------------------------0---------------------|
Eb|------------4--------------------------------x---------------------|
Bb|--2---2---2-2----0---0---0-0---0-10--10--10-10--10--10--10-10------|
 F|--2---2---2-2----0---0---0-0---0-10--10--10-10--10--10--10-10--0---|
Bb|--2---2---2-2----0---0---0-0---0-10--10--10-10--10--10--10-10--0---|
                                                                      |
Chorus: Guitar 2 (Distorted)                                          |
 C|--12--12-15-14-12-12--12-14-15---12--12-15-14-12-12--12-15-14------|
 G|----15--------------15-------------15--------------15--------------|
Eb|-------------------------------------------------------------------|
Bb|-------------------------------------------------------------------|
 F|-------------------------------------------------------------------|
Bb|-------------------------------------------------------------------|

Chorus: Guitar 1 (Distorted) PLAY 2 TIMES
 C|------------0--------------------------------0---------------------|
 G|------------5--------------------------------0---------------------|
Eb|------------4--------------------------------x---------------------|
Bb|--2---2---2-2----0---0---0-0---0-10--10--10-10--10--10--10-10------|
 F|--2---2---2-2----0---0---0-0---0-10--10--10-10--10--10--10-10--0---|
Bb|--2---2---2-2----0---0---0-0---0-10--10--10-10--10--10--10-10--0---|
                                                                      |
Chorus: Guitar 2 (Distorted)                                          |
 C|---0---0--3--2--0--0---0--2--3----0---0--3--2--0--0---0--2--3------|
 G|-----3---------------3--------------3---------------3--------------|
Eb|-------------------------------------------------------------------|
Bb|-------------------------------------------------------------------|
 F|-------------------------------------------------------------------|
Bb|-------------------------------------------------------------------|

Bridge: Guitar 2 (Distorted)
 C|----------------10-------------------------------------------------|
 G|-----------------------10------------------------------------------|
Eb|-------------------------------------------------------------------|
Bb|--------------------7----------------------------------------------|
 F|--7----10----7--------------7----10----7---------------------------|
Bb|-------------------------------------------------------------------|

Bridge: Guitar 1 (Distorted) (NOTE: IíLL SYNC THIS WITH THE SOLO SOON)
 C|-------------------------------------------------------------------|
 G|-------------------------------------------------------------------|
Eb|-------------------------------------------------------------------|
Bb|----------------------------3p2-0h2---------------------------3p2-5|
 F|--2--5--2--8--7--5--2--5--2---------2--5--2--8--7--5--2--5--2------|
Bb|--2--5--2--8--7--5--2--5--2---------2--5--2--8--7--5--2--5--2------|

Bridge: Guitar 1 (Distorted) (NOTE: IíLL SYNC THIS WITH THE SOLO SOON)
 C|-------------------------------------------------------------------|
 G|-------------------------------------------------------------------|
Eb|-------------------------------------------------------------------|
Bb|----------------------------3p2-0h2--------------------------------|
 F|--2--5--2--8--7--5--2--5--2---------2--5--2--8--7--5--2--5--2-5-0-2|
Bb|--2--5--2--8--7--5--2--5--2---------2--5--2--8--7--5--2--5--2-5-0-2|

Bridge/Solo: Guitar 2 (Distorted)
 C|-----------------------19-----------17------------------15--14-----|
 G|--17-----20--19----20------20--19-------20--19---17----------------|
Eb|-------------------------------------------------------------------|
Bb|-------------------------------------------------------------------|
 F|-------------------------------------------------------------------|
Bb|-------------------------------------------------------------------|

Bridge/Solo: Guitar 2 (Distorted)
 C|--14-10----10-14-15-14-10-14-10----10-14-10------------------------|
 G|--------12----------------------12----------12-15---17-----20--19--|
Eb|-------------------------------------------------------------------|
Bb|-------------------------------------------------------------------|
 F|-------------------------------------------------------------------|
Bb|-------------------------------------------------------------------|

Bridge/Solo: Guitar 2 (Distorted)
 C|------19-----------20------------------12--14----------------------|
 G|--20------20--19-------20--19---12--------------12-14-15-14-12-----|
Eb|---------------------------------------------------------------12-9|
Bb|-------------------------------------------------------------------|
 F|-------------------------------------------------------------------|
Bb|-------------------------------------------------------------------|

Bridge/Solo: Guitar 2 (Distorted)
 C|---------------------------12*-------------------------------------|
 G|-----10------------------------------------------------------------|
Eb|--12----12-11-12-11----9-------------------------------------------|
Bb|--------------------12---------------------------------------------|
 F|-------------------------------------------------------------------|
Bb|-------------------------------------------------------------------|
                               ^octave up

Chorus: Guitar 1 (Distorted)
 C|---------------------------------------------0---------------------|
 G|---------------------------------------------0---------------------|
Eb|---------------------------------------------x---------------------|
Bb|--2---2---2------0---0---0-------10--10--10-10--10--10--10-10------|
 F|--2---2---2------0---0---0-------10--10--10-10--10--10--10-10--0---|
Bb|--2---2---2------0---0---0-------10--10--10-10--10--10--10-10--0---|
                                                                      |
Chorus: Guitar 2 (Distorted)                                          |
 C|--12*----------------------------12--12-15-14-12-12--12-15-14------|
 G|-----------------------------------15--------------15--------------|
Eb|-------------------------------------------------------------------|
Bb|-------------------------------------------------------------------|
 F|-------------------------------------------------------------------|
Bb|-------------------------------------------------------------------|

Chorus: Guitar 1 (Distorted)
 C|------------0--------------------------------0---------------------|
 G|------------5--------------------------------0---------------------|
Eb|------------4--------------------------------x---------------------|
Bb|--2---2---2-2----0---0---0-0---0-10--10--10-10--10--10--10-10------|
 F|--2---2---2-2----0---0---0-0---0-10--10--10-10--10--10--10-10--0---|
Bb|--2---2---2-2----0---0---0-0---0-10--10--10-10--10--10--10-10--0---|
                                                                      |
Chorus: Guitar 2 (Distorted)                                          |
 C|--12--12-15-14-12-12--12-14-15---12--12-15-14-12-12--12-15-14------|
 G|----15--------------15-------------15--------------15--------------|
Eb|-------------------------------------------------------------------|
Bb|-------------------------------------------------------------------|
 F|-------------------------------------------------------------------|
Bb|-------------------------------------------------------------------|

Chorus: Guitar 1 (Distorted) PLAY 2 TIMES
 C|------------0--------------------------------0---------------------|
 G|------------5--------------------------------0---------------------|
Eb|------------4--------------------------------x---------------------|
Bb|--2-2-2-2-2-2----0---0---0-0---0-10--10--10-10--10--10--10-10------|
 F|--2-2-2-2-2-2----0---0---0-0---0-10--10--10-10--10--10--10-10--0---|
Bb|--2-2-2-2-2-2----0---0---0-0---0-10--10--10-10--10--10--10-10--0---|
                                                                      |
Chorus: Guitar 2 (Distorted)                                          |
 C|---0---0--3--2--0--0---0--2--3----0---0--3--2--0--0---0--2--3------|
 G|-----3---------------3--------------3---------------3--------------|
Eb|-------------------------------------------------------------------|
Bb|-------------------------------------------------------------------|
 F|-------------------------------------------------------------------|
Bb|-------------------------------------------------------------------|

Outro: Guitars 1 & 2 (Distorted)
 C|-------------------------------------------------------------------|
 G|-------------------------------------------------------------------|
Eb|-------------------------------------------------------------------|
Bb|--------------3------------------------3p2-0h2p0-3--2--------------|
 F|--0--2--0--2-----2--0--2---0--2--0--2---------------2--------------|
Bb|--0--2--0--2-----2--0--2---0--2--0--2---------------2--------------|

Finished
Tap to rate this tab
# A B C D E F G H I J K L M N O P Q R S T U V W X Y Z