Song name
# A B C D E F G H I J K L M N O P Q R S T U V W X Y Z

Breaking Benjamin - Simple Design tab

Song: Simple Design
Artist: Breaking Benjamin
Album: We Are Not Alone
Tuning: Drop C

[Intro]
D|-----------------------------------------|
A|-----------------------------------------|
F|-----------------------------------------|
C|-xxxx--1097503---------------------------|
G|-xxxx--1097503-----35----3530------------|
C|-xxxx--1097503-00-0--00-0----------------|
         ^thats a 10, not a 1 and 0

D|------------------------------------------|
A|------------------------------------------|
F|------------------------------------------|
C|---1097503--------------------------------|
G|---1097503-----35----3530-----------------|
C|---1097503-0000--00-0---------------------|
     ^thats a 10, not a 1 and 0


D|-----------------------------------------|
A|-----------------------------------------|
F|-9-7-9-7-5-7-----------------------------|
C|-x-x-x-x-x-x------------------0-7-10-----|
G|-7-5-7-5-3-5-----35-----3530--0-x-x------|
C|-------------00-0---00-0------0-5-8------|

D|------------------------------------|
A|------------------------------------|
F|----------11111111------------------| x3
C|-0-090-00-10101010------------------|
G|-0-090-00-9-9-9-9-------------------|
C|-0-090-00---------------------------|

[Verse1]
D|------------|----------------------------------------------------|
A|------------|----------------------------------------------------|
F|------------|-55/7-55/7-1212/11-55/7-55/7-55/7-1212/11--55/7-7^--|
C|-0-090-00---|-xx/x-xx/x-xxxx/x--xx/x-xx/x-xx/x-xxxx/xx--xx/x-x^--|
G|-0-090-00---|-33/5-33/5-1010/9--33/5-33/5-33/5-1010/9---33/5-5^--|
C|-0-090-00---|-----------^12,10, and 11          ^12,10, and 11---|

D|------------------------------------|
A|------------------------------------|
F|----------11111111------------------| x3
C|-0-090-00-10101010------------------|
G|-0-090-00-9-9-9-9-------------------|
C|-0-090-00---------------------------|

[PreChorus]
D|------------|-----------------------|
A|------------|-----------------------|
F|------------|-----------------------|
C|-0-090-00---|-9-45-x7---------------|
G|-0-090-00---|-9-45-x7---------------|
C|-0-090-00---|-9-45-x7---------------|

[Chorus]
D|------------------------------------|
A|------------------------------------|
F|------------------------------------| x4
C|-0-7-4-5----------------------------|
G|-0-7-4-5----------------------------|
C|-0-7-4-5----------------------------|
Strummings to hard to tab so figure the strumming out on your own

After the the chorus play this
D|------------------------------------|
A|------------------------------------|
F|------------------------------------|
C|-9-7-4-5-0505-7---------------------|
G|-9-7-4-5-0505-7---------------------|
C|-9-7-4-5-0505-7---------------------|

[Verse2]
D|-----------------|----------------------------------------------------|
A|-----------------|----------------------------------------------------|
F|----------111111-|-55/7-55/7-1212/11-55/7-55/7-55/7-1212/11--55/7-7^--|
C|-0-090-00-101010-|-xx/x-xx/x-xxxx/x--xx/x-xx/x-xx/x-xxxx/xx--xx/x-x^--|
G|-0-090-00-9-9-9--|-33/5-33/5-1010/9--33/5-33/5-33/5-1010/9---33/5-5^--|
C|-0-090-00--------|-----------^12,10, and 11          ^12,10, and 11---|

D|------------------------------------|
A|------------------------------------|
F|----------11111111------------------| x3
C|-0-090-00-10101010------------------|
G|-0-090-00-9-9-9-9-------------------|
C|-0-090-00---------------------------|

D|------------|-----------------------|
A|------------|-----------------------|
F|------------|-----------------------|
C|-0-090-00---|-9-45-x7---------------|
G|-0-090-00---|-9-45-x7---------------|
C|-0-090-00---|-9-45-x7---------------|

[Chorus]
D|------------------------------------|
A|------------------------------------|
F|------------------------------------| x4
C|-0-7-4-5----------------------------|
G|-0-7-4-5----------------------------|
C|-0-7-4-5----------------------------|
Strummings to hard to tab so figure the strumming out on your own


After the the chorus play this
D|------------------------------------|
A|------------------------------------|
F|------------------------------------|
C|-9-7-4-5-0505-7---------------------|
G|-9-7-4-5-0505-7---------------------|
C|-9-7-4-5-0505-7---------------------|


I DO NOT KNOW THE PART WHERE IT CALMS DOWN AND IS QUIET...SO FIND ANOTHER TAB FOR THAT

D|----------------------------------------------|
A|----------------------------------------------|
F|----------------------------------------------|
C|-0-0-0--0-0-0---------0-0-0--0-0-0------------|
G|-0-0-0--0-0-0-5-------0-0-0--0-0-0-5----------|
C|-0-0-0--0-0-0---3-0-3-0-0-0--0-0-0---3-0-3----|

[Solo]
D|----------------------------------------------|
A|-17--19-17-19-17-19^--------------------------|
F|---------------------16-14--------------------|
C|----------------------------------------------|
G|----------------------------------------------|
C|----------------------------------------------|
Strumming is kinda hard to tab, so I just have the notes, you can figure out the strumming on your own

[Chorus]
D|------------------------------------------|
A|------------------------------------------|
F|------------------------------------------| x6
C|-xxxx--0-7-4-5----------------------------|
G|-xxxx--0-7-4-5----------------------------|
C|-xxxx--0-7-4-5----------------------------|
You only play with the scratching once, in the begining.

After the the chorus play this
D|-----|-------------------------------|
A|-----|-------------------------------|
F|-----|-------------------------------|
C|-0-7-|--9-7-4-5-0505-7---------------|
G|-0-7-|--9-7-4-5-0505-7---------------|
C|-0-7-|--9-7-4-5-0505-7---------------|

D|------------------------------------|
A|------------------------------------|
F|----------11111111------------------| x1
C|-0-090-00-10101010------------------|
G|-0-090-00-9-9-9-9-------------------|
C|-0-090-00---------------------------|

D|------------------------|
A|------------------------|
F|------------------------|
C|-0-090-00-10/1----------|
G|-0-090-00-10/1----------|
C|-0-090-00-10/1----------|

D|---------------------------------------------------|
A|---------------------------------------------------|
F|---------------------------------------------------|
C|--------------------------------3-00---------------|
G|--5--------------------35---5--------5-00-35--5-35-|
C|-0-3-0-5-00-6-00-5-0-35----0-3-0-------------0-----|

D|-----------------------------------------|
A|-----------------------------------------|
F|-----------------------------7-10--------|
C|---------------------------0-x-x---0-0-0-|
G|--5--------------------35--0-5-8---0-0-0-|
C|-0-3-0-5-00-6-00-5-0-35----0-------0-0-0-|

Ok the tab is in sequencial(sp?) order. So thats why some don't have titles such as 
chorus, blah blah blah.

Hopefully this will help everyone.

Enjoy!
Tap to rate this tab
# A B C D E F G H I J K L M N O P Q R S T U V W X Y Z