Song name
# A B C D E F G H I J K L M N O P Q R S T U V W X Y Z

Breaking Benjamin - Polyamorous tab

-------------------------------------------------------------------------------
			     Polyamorous - Breaking Benjamin
-------------------------------------------------------------------------------
Tabbed by: Will Washney
Email:SirPirateWillie@gmail.com

Tuning: Drop D 1/2 Step

I've watched this played many times by watching Breaking Ben live. There are no versions 
here 100% correct so I decided to post the correct version. Any questions comment or

email me. I threw in the words to help you but there not timed correctly.

Intro: (Use Tremolo Effect For First Part Only)

Eb|---------------------------|
Bb|---------------------------|
Gb|-10--6---10--6-------------|
Db|-8---4---8---4-------------|
Ab|-8---4---8---4-------------|
Db|-8---4---8---4-------------|


Eb|---------------------------|
Bb|---------------------------|
Gb|---------------------------|
Db|--9-9--0-0--0-5-5--0-5-5---| x4
Ab|--9-9--0-0--0-5-5--0-5-5---|
Db|--9-9--0-0--0-5-5--0-5-5---|


          "Lets Go"
Eb|--------------------------------|
Bb|--------------------------------|
Gb|--------------------------------|
Db|9-9-------------9-9-------------| x4
Ab|9-9--10-10-9-9--9-9--12-12-10-10|
Db|9-9-------------9-9-------------|

Verse: (All Palm Muted Except For Last Power Cord That You Slide)

               "The day has come to an end"
Eb|---------------------------------------------------------|
Bb|---------------------------------------------------------|
Gb|---------------------------------------------------------|
Db|-----5-5-4-4-------5-5-4-4------4-4-5-5-------5-5-4-4----|
Ab|-2-2-----------------------------------------------------|
Db|---------------4-4----------5-5-----------2-2------------|

              "The sun is over my head"
Eb|---------------------------------------------------------|
Bb|---------------------------------------------------------|
Gb|---------------------------------------------------------|
Db|-----5-5-4-4-------5-5-4-4------4-4-5-5-------5-5-4-4----|
Ab|-2-2-----------------------------------------------------|
Db|---------------4-4----------5-5-----------2-2------------|

                 "My polyamorous friend"
Eb|---------------------------------------------------------|
Bb|---------------------------------------------------------|
Gb|---------------------------------------------------------|
Db|-----5-5-4-4-------5-5-4-4------4-4-5-5-------5-5-4-4----|
Ab|-2-2-----------------------------------------------------|
Db|---------------4-4----------5-5-----------2-2------------|

        "You've got me in a mass of trouble again.. SO!"
Eb|-----------------------------------------------------|
Bb|--------------------------------------------------------|
Gb|--------------------------------------------------------|
Db|-----5-5-4-4-------5-5-4-4------4-4-5-5----------22-2/--|
Ab|-2-2---------------------------------------------22-2/--|
Db|---------------4-4----------5-5-----------2-2----22-2/--|

Chorus:

"Just when you think that you are right"
Eb|--------------------|
Bb|--------------------|
Gb|--------------------|
Db|0--7--5--0-5-4-0-4--|
Ab|0--7--5--0-5-4-0-4--|
Db|0--7--5--0-5-4-0-4--|

"Im crawling out from the inside"
Eb|--------------------|
Bb|--------------------|
Gb|--------------------|
Db|0--7--5--0-5-4-0-4--|
Ab|0--7--5--0-5-4-0-4--|
Db|0--7--5--0-5-4-0-4--|

"I never heard anyone"
Eb|--------------------|
Bb|--------------------|
Gb|--------------------|
Db|0--7--5--XX-X-------|
Ab|0--7--5--XX-X-------|
Db|0--7--5--XX-X-------|

"I never listen at all"
Eb|--------------------|
Bb|--------------------|
Gb|--------------------|
Db|-0-5-4-0-4----------|
Ab|-0-5-4-0-4----------|
Db|-0-5-4-0-4----------|

Eb|--------------------------------|
Bb|--------------------------------|
Gb|--------------------------------|
Db|9-9-------------9-9-------------| x2
Ab|9-9--10-10-9-9--9-9--12-12-10-10|
Db|9-9-------------9-9-------------|

Verse: (All Palm Muted Except For Last Power Cord That You Slide)

               "They come to get again"
Eb|---------------------------------------------------------|
Bb|---------------------------------------------------------|
Gb|---------------------------------------------------------|
Db|-----5-5-4-4-------5-5-4-4------4-4-5-5-------5-5-4-4----|
Ab|-2-2-----------------------------------------------------|
Db|---------------4-4----------5-5-----------2-2------------|

              "The cloud is over my head"
Eb|---------------------------------------------------------|
Bb|---------------------------------------------------------|
Gb|---------------------------------------------------------|
Db|-----5-5-4-4-------5-5-4-4------4-4-5-5-------5-5-4-4----|
Ab|-2-2-----------------------------------------------------|
Db|---------------4-4----------5-5-----------2-2------------|

                 "My polyamorous friend"
Eb|---------------------------------------------------------|
Bb|---------------------------------------------------------|
Gb|---------------------------------------------------------|
Db|-----5-5-4-4-------5-5-4-4------4-4-5-5-------5-5-4-4----|
Ab|-2-2-----------------------------------------------------|
Db|---------------4-4----------5-5-----------2-2------------|

        "You've got me in a mass of trouble again.. SO!"
Eb|--------------------------------------------------------|
Bb|--------------------------------------------------------|
Gb|--------------------------------------------------------|
Db|-----5-5-4-4-------5-5-4-4------4-4-5-5----------22-2/--|
Ab|-2-2---------------------------------------------22-2/--|
Db|---------------4-4----------5-5-----------2-2----22-2/--|

Chrous:

"Just when you think that you are right"
Eb|--------------------|
Bb|--------------------|
Gb|--------------------|
Db|0--7--5--0-5-4-0-4--|
Ab|0--7--5--0-5-4-0-4--|
Db|0--7--5--0-5-4-0-4--|

"Im crawling out from the inside"
Eb|--------------------|
Bb|--------------------|
Gb|--------------------|
Db|0--7--5--0-5-4-0-4--|
Ab|0--7--5--0-5-4-0-4--|
Db|0--7--5--0-5-4-0-4--|

"I never heard anyone"
Eb|--------------------|
Bb|--------------------|
Gb|--------------------|
Db|0--7--5--XX-X-------|
Ab|0--7--5--XX-X-------|
Db|0--7--5--XX-X-------|

"I never listen at all"
Eb|--------------------|
Bb|--------------------|
Gb|--------------------|
Db|-0-5-4-0-4----------|
Ab|-0-5-4-0-4----------|
Db|-0-5-4-0-4----------|

"Just stay away from the white line"
Eb|--------------------|
Bb|--------------------|
Gb|--------------------|
Db|0--7--5--0-5-4-0-4--|
Ab|0--7--5--0-5-4-0-4--|
Db|0--7--5--0-5-4-0-4--|

"I'd say your worst side, your best side"
Eb|--------------------|
Bb|--------------------|
Gb|--------------------|
Db|0--7--5--0-5-4-0-4--|
Ab|0--7--5--0-5-4-0-4--|
Db|0--7--5--0-5-4-0-4--|

"I never heard anyone"
Eb|--------------------|
Bb|--------------------|
Gb|--------------------|
Db|0--7--5--XX-X-------|
Ab|0--7--5--XX-X-------|
Db|0--7--5--XX-X-------|

"I never listen at all"
Eb|--------------------|
Bb|--------------------|
Gb|--------------------|
Db|-0-5-4-0-4----------|
Ab|-0-5-4-0-4----------|
Db|-0-5-4-0-4----------|

Bride:

Eb|----------------------------|
Bb|----------------------------|
Gb|4~---6~-7~------------------|
Db|4~---6~-7~--5~-4~-5~-2~-5~--| x2
Ab|2~---4~-5~--5~-4~-5~-2~-5~--|
Db|------------5~-4~-5~-2~-5~--|
                        "Well how do you know?"
Db|---------------------------------------------------------------|
Bb|---------------------------------------------------------------|
Gb|---------------------------------------------------------------|
Db|---------------------------------------------------------------|
Ab|2-2-2-2-2-2-2-2-4-4-4-4-5-5-5-5--------------------------------|
Db|--------------------------------4-4-4-4-4-4-4-4-5-5-5-5-4-4-4-4|

Eb|---------------------------------------------------------------|
Bb|---------------------------------------------------------------|
Gb|---------------------------------------------------------------|
Db|---------------------------------------------------------------|
Ab|---------------------------------------------------------------|
Db|5-5-5-5-5-5-5-5-5-5-5-5-4-4-4-4-2-2-2-2-2-2-2-2-5-5-5-5-4-4-4-4|

                        "Well how do you know?"
Db|---------------------------------------------------------------|
Bb|---------------------------------------------------------------|
Gb|---------------------------------------------------------------|
Db|---------------------------------------------------------------|  <-- Palm mute everything
Ab|2-2-2-2-2-2-2-2-4-4-4-4-5-5-5-5--------------------------------|
Db|--------------------------------4-4-4-4-4-4-4-4-5-5-5-5-4-4-4-4|

Eb|---------------------------------------------------------------|
Bb|---------------------------------------------------------------|
Gb|---------------------------------------------------------------|
Db|---------------------------------------------------------------|  <-- Palm mute everything
Ab|---------------------------------------------------------------|
Db|5-5-5-5-5-5-5-5-5-5-5-5-4-4-4-4-2-2-2-2-2-2-2-2-5-5-5-5-4-4-4-4|

                         "Well how do you know?"
Eb|---------------------------------------------------------------|
Bb|---------------------------------------------------------------|
Gb|4-4-4-4-4-4-4-4-6-6-6-6-7-7-7-7-6-6-6-6-6-6-6-6-7-7-7-7-9-9-9-9|
Db|x-x-x-x-x-x-x-x-x-x-x-x-x-x-x-x-x-x-x-x-x-x-x-x-x-x-x-x-x-x-x-x|
Ab|2-2-2-2-2-2-2-2-4-4-4-4-5-5-5-5-4-4-4-4-4-4-4-4-5-5-5-5-7-7-7-7|
Db|---------------------------------------------------------------|

Eb|---------------------------------------------------------------|
Bb|---------------------------------------------------------------|
Gb|7-7-7-7-7-7-7-7-7-7-7-7-6-6-6-6-4-4-4-4-4-4-4-4-7-7-7-7-6-6-6-6|
Db|x-x-x-x-x-x-x-x-x-x-x-x-x-x-x-x-x-x-x-x-x-x-x-x-x-x-x-x-x-x-x-x|
Ab|5-5-5-5-5-5-5-5-5-5-5-5-4-4-4-4-2-2-2-2-2-2-2-2-5-5-5-5-4-4-4-4|
Db|---------------------------------------------------------------|

         "Well how do you know?"
Eb|-------------------------|
Bb|-------------------------|
Gb|-------------------------|
Db|-0-0--0-5-4-0-4----------| x2
Ab|-0-0--0-5-4-0-4----------|
Db|-0-0--0-5-4-0-4----------|

Chrous:

"Just when you think that you are right"
Eb|--------------------|
Bb|--------------------|
Gb|--------------------|
Db|0--7--5--0-5-4-0-4--|
Ab|0--7--5--0-5-4-0-4--|
Db|0--7--5--0-5-4-0-4--|

"Im crawling out from the inside"
Eb|--------------------|
Bb|--------------------|
Gb|--------------------|
Db|0--7--5--0-5-4-0-4--|
Ab|0--7--5--0-5-4-0-4--|
Db|0--7--5--0-5-4-0-4--|

"I never heard anyone"
Eb|--------------------|
Bb|--------------------|
Gb|--------------------|
Db|0--7--5--XX-X-------|
Ab|0--7--5--XX-X-------|
Db|0--7--5--XX-X-------|

"I never listen at all"
Eb|--------------------|
Bb|--------------------|
Gb|--------------------|
Db|-0-5-4-0-4----------|
Ab|-0-5-4-0-4----------|
Db|-0-5-4-0-4----------|

"Just stay away from the white line"
Eb|--------------------|
Bb|--------------------|
Gb|--------------------|
Db|0--7--5--0-5-4-0-4--|
Ab|0--7--5--0-5-4-0-4--|
Db|0--7--5--0-5-4-0-4--|

"I'd say your worst side, your best side"
Eb|--------------------|
Bb|--------------------|
Gb|--------------------|
Db|0--7--5--0-5-4-0-4--|
Ab|0--7--5--0-5-4-0-4--|
Db|0--7--5--0-5-4-0-4--|

"I never heard anyone"
Eb|--------------------|
Bb|--------------------|
Gb|--------------------|
Db|0--7--5--XX-X-------|
Ab|0--7--5--XX-X-------|
Db|0--7--5--XX-X-------|

"I never listen at all"
Eb|--------------------|
Bb|--------------------|
Gb|--------------------|
Db|-0-5-4-0-4----------|
Ab|-0-5-4-0-4----------|
Db|-0-5-4-0-4----------|

Outro:
Eb|--------------------|
Bb|--------------------|
Gb|--------------------|
Db|0--7--5--XX-X-------|
Ab|0--7--5--XX-X-------|
Db|0--7--5--XX-X-------|

Eb|--------------------|
Bb|--------------------|
Gb|--------------------|
Db|-0-5-4-0-4----------|
Ab|-0-5-4-0-4----------|
Db|-0-5-4-0-4----------| x2

             "Lets GO!"
Eb|--------------------------------------------------|
Bb|--------------------------------------------------|
Gb|--------------------------------------------------|
Db|9-9-------------9-9---------------9-9-------------| 
Ab|9-9--10-10-9-9--9-9--12-12-10-10--9-9--10-10-9-9--|
Db|9-9-------------9-9---------------9-9-------------|

End On:

Eb|-----|
Bb|-----|
Gb|-----|
Db|--9--|
Ab|--9--|
Db|--9--|


| /  slide up
| \  slide down
| h  hammer-on
| p  pull-off
| ~  vibrato
| +  harmonic
| x  Mute note
===============================================================================
Tap to rate this tab
# A B C D E F G H I J K L M N O P Q R S T U V W X Y Z