Song name
# A B C D E F G H I J K L M N O P Q R S T U V W X Y Z

Bret Michaels - Go That Far tab

----------------------------------------------------------------------------
			     Go That Far - Bret Michaels
----------------------------------------------------------------------------
Tabbed by: linkinpark_rox
Email: izziekitty1994@hotmail.com

Tuning: half step down (Eb Ab Db Gb Bb Eb)

Intro:

|----------------------------------------------|
|----------------------------------------------|
|----------------------------------------------|
|------3-5--3-5--3-5-5---------------3-5--3-5--|
|-3-5--1-3--1-3--1-3-3-3-5-5-5--3-5--1-3--1-3--|
|-1-3------------------1-3-3-3--1-3------------|

Guitar 2 continues to play this ^ riff while Guitar 1 plays this:

|----------------------|-----------------|
|----------------------|-----------------|
|-0h1p0----0h1p0----0--|---5b---5b-r-----|
|-------3---------3----|---5b---5b-r-----|
|----------------------|-----------------|
|----------------------|-----------------|
 Play 3 times then-----------------------|^This.

Play the whole thing twice then:

Guitar 1:

|--x-x-x-x-------------| Either play this or slide pick along strings to
|--x-x-x-x-------------| get the right sound.
|--x-x-x-x-------------|
|--x-x-x-x----X32(?)---|
|--x-x-x-x-------------|
|--x-x-x-x-------------|

Guitar 2 (Doesn't come in till 16 counts [of 4] later):

Verse (?):

|--------------------------------|
|--------------------------------|
|--------5-----------------5-----|
|--5-----5--5-----3--5-----5--5--|
|--5-----3--5-----3--5-----3--5--|
|--3--------3-----1--3--------3--|

Not quite sure how this part goes...:

|--------------------------------| Play this (i guess) a few times.
|--------------------------------|
|-5-5-5-5-x-3-3-3-3-x------------|
|-5-5-5-5-x-3-3-3-3-x-5--3-3--5--|
|-3-3-3-3-x-1-1-1-1-x-5--3-3--5--|
|---------------------3--1-1--3--|

For the Chorus, just play the whole intro part.  And for the little interlude part, just 
the verse part then go back and play the intro part until the end. The outro is just 
1 of the intro (and the pick-scratchy thing).

And comments of corrections, my email address is above.  Rock on forever!

-Sarah

| /  slide up
| \  slide down
| h  hammer-on
| p  pull-off
| ~  vibrato
| +  harmonic
| x  Mute note
| b  Bend note
| r  Release bend
============================================================================
Tap to rate this tab
# A B C D E F G H I J K L M N O P Q R S T U V W X Y Z