Song name
# A B C D E F G H I J K L M N O P Q R S T U V W X Y Z

Brett Anderson - Song For My Father tab

Highlighted       Show chord diagrams
Cm6 (x324x3)

Verse
---------------|
---------------|
---4--2-0------|
--2--0------0--|
-3--2------2---|
----------3----|

Chorus (adapted to guitar)
-3-2---0---0-0-0-2-2-|
-3-3-3-1-1-1-1-1-3-3-|
-0-0-0-0-0-2-2-2-4-4-|
-0-0-0-2-2-2-2-2-4-4-|
-x-x-x-3-3-0-0-0-2-2-|
-3-3-3---------------|

Cm6  and  Bm
Now my body is sand and the wind blows through me
Like the soil on your hand I am compost and leaves

G      C       Am      Bm
And my life is gone, darling
And now I am free
And my life is gone, darling, like words made of sand
like the shivering trees

And my life was a flower and love was the leaves
But nobody saw any beauty in me

And my life is gone, darling
And now I am free
And my life has gone, darling, like words made of sand
like the shivering trees

When your life has gone, darling, and when you are free
When your life is gone, darling, you're words made of sand
so be nothing with me
Tap to rate this tab
# A B C D E F G H I J K L M N O P Q R S T U V W X Y Z