Song name
# A B C D E F G H I J K L M N O P Q R S T U V W X Y Z

Brett Dennen - Comeback Kid tab

I love this song but couldn't find tabs anywhere. This is my best guess, so I hope you like it!

INTRO
e--------3-3----------5-5p3----------3-3----------|
b-----------------------------------------5-3-5-3-|
g---5------------3--------------5-----------------|
d-5---5--------5---5----------5---5---------------|
a-------------------------------------------------|
e-------------------------------------------------|

CHORUS/PRE CHORUS
x-x--x-x--x-x--x-x--x-x--x-x--x-x--x-x-/-x-x--x-x--x-x--x-x--x-x--x-x--x-x--x-x-|
1-1--x-x--1-1--x-x--1-1--x-x--1-1--x-x-/-3-3--x-x--3-3--x-x--3-3--x-x--3-3--x-x-|
2-2--x-x--2-2--x-x--2-2--x-x--2-2--x-x-/-4-4--x-x--4-4--x-x--4-4--x-x--4-4--x-x-|
3-3--x-x--3-3--x-x--3-3--x-x--3-3--x-x-/-5-5--x-x--5-5--x-x--5-5--x-x--5-5--x-x-|
x-x--x-x--x-x--x-x--x-x--x-x--x-x--x-x-/-x-x--x-x--x-x--x-x--x-x--x-x--x-x--x-x-|
x-x--x-x--x-x--x-x--x-x--x-x--x-x--x-x-/-x-x--x-x--x-x--x-x--x-x--x-x--x-x--x-x-|
REPEAT
Tap to rate this tab
# A B C D E F G H I J K L M N O P Q R S T U V W X Y Z