Song name
# A B C D E F G H I J K L M N O P Q R S T U V W X Y Z

Brian Haner - Saturday tab

-------------------------------------------------------------------------------
			     Saturday - Brian Haner
-------------------------------------------------------------------------------
Tabbed by: Mezmerus
Email: szryder.94_7@yahoo.com

Tuning: Drop D or Standard

Verse/Chorus

For those who play in Drop D tuning
e|-------------------------------------|-------------------------------------|
B|-------------------------------------|-------------------------------------|
G|-------------------------------------|-------------------------------------|
D|-7-----------7-------------------7-7-|-4-----------4-------------------4-4-|
A|-7-----------7-------------------7-7-|-4-----------4-------------------4-4-|
D|-7-----------7-------------------7-7-|-4-----------4-------------------4-4-|
   x                                     x


For those who play in Standard tuning
e|-------------------------------------|-------------------------------------|
B|-------------------------------------|-------------------------------------|
G|-2-----------2-------------------2-2-|-------------------------------------|
D|-2-----------2-------------------2-2-|-4-----------4-------------------4-4-|
A|-0-----------0-------------------0-0-|-4-----------4-------------------4-4-|
E|-------------------------------------|-2-----------2-------------------2-2-|
   x                                     x
Repeat these two bars until the solo. Add light distortion to the guitar at the chorus 
and afterward.
Don't let the chords whit the x under it ring out for to long.


Solo

e|---------------------------------------------------------------------------|
B|-t18p12p10t18p10\8t18\6t18\5p3t18p3t18p3/5t18p5/6t18p6/8t18p8/10t18p10/13v-|
G|---------------------------------------------------------------------------|
D|---------------------------------------------------------------------------|
A|---------------------------------------------------------------------------|
E|---------------------------------------------------------------------------|

e|--------------------------17-13--18-12-------------------------------------|
B|-15-13-15b(17)r(15)b(17)----------------15-17b(19)r17-15-13-15-12v---------|
G|---------------------------------------------------------------------------|
D|---------------------------------------------------------------------------|
A|---------------------------------------------------------------------------|
E|---------------------------------------------------------------------------|
         -I can't really get this bending out right.

e|---------------------------------------------------------------------------|
B|-/8-6-5-t10p5\3/13vv-------------------------------------------------------|
G|---------------------------------------------------------------------------|
D|---------------------------------------------------------------------------|
A|---------------------------------------------------------------------------|
E|---------------------------------------------------------------------------|




************************************

| /   slide up
| \   slide down
| h   hammer-on
| p   pull-off
| t   tap
| v   vibrato
| +   harmonic
| x   Mute note
| b   Bend
| pb  Pre-bend
| br  Bend release
| pbr Pre-bend release
| brb Bend release bend

************************************
Tap to rate this tab
 
# A B C D E F G H I J K L M N O P Q R S T U V W X Y Z