Song name
# A B C D E F G H I J K L M N O P Q R S T U V W X Y Z

Brian Jonestown Massacre - Dawn tab

DAWN

Intro Chords: A D G D G A x2

 A             D         G       D     G    
         A
e-------------------------------------------------------------|
B-------------------------------------------------------------|
G-------------6-9-9-7-7----------9-9-7-7-7-7h9-7h9-6-6-6h7-6--|
D-7-7-7-7-7-9-----------7-7-----------------------------------|
A---------------------------10-10-----------------------------|
E-------------------------------------------------------------|
   A                 D        G          D   
    A
e-------------------------------------------------------------|
B-------------------------------------------------10-10-------|
G-6-6-6-----------6/9-9-9-7-7-----------9-9-7-7-7---9--9...---|
D-------9-9-9-9-9-------------7-7-----------------------------|
A---------------------------------10-10-----------------------|
E-------------------------------------------------------------|

E    D            A
 I stayed up all night
E           D              A
 till the morning's first light
G           D
what did I see?
G                E
i know it wasn't me there.
Tap to rate this tab
 
# A B C D E F G H I J K L M N O P Q R S T U V W X Y Z