Song name
# A B C D E F G H I J K L M N O P Q R S T U V W X Y Z

Brian Setzer Orchestra - This Cats On A Hot Tin Roof tab

#----------------------------------PLEASE NOTE---------------------------------#
#This file is the author's own work and represents their interpretation of the #
#song. You may only use this file for private study, scholarship, or research. #
#------------------------------------------------------------------------------#

Brian Setzer Orchestra

This CAts....

Brian S.


Intro

    C6
e------------8-----------8-----------8-----------------|
b-------8h10--------8h10--------8h10----------------8--|
g---8h9---------8h9---------8h9----------------8-h9----|
d------------------------------------------------------|
a------------------------------------------------------|
e----------------------------------------8-8~----------|


e--8------------10-8-----------------------------------|
b-----11-p10p8--------11p10p8-8--10--11~~--------------|
g-----------------------------8--10--11~~--10-8v~~-----|
d------------------------------------------------------|
a------------------------------------------------------|
e------------------------------------------------------|


e-------------------------------------------------------|
b-------------------------------------------------------|
g--8-10--8v~~--10--8v~~--8-10--10b--10b--10b-10b-10br10-|
d-------------------------------------------------------|
a-------------------------------------------------------|
e-------------------------------------------------------|


e--------------------------------------------|
b--------------------------------------------|
g-8-10p8----10-10b-r10--8--------------------|
d--------8-----------------------------------|
a-------------------------------7-7-8-8-9-9/-|
e---------------------------8-8--------------|

Verses
e------------------------------------------------------|
b------------------------------------------------------|
g------------------------------------------------------|
d------------------------------------------------------|
a--10--10---12--10--10---12~~--------------------------|
e--8---8----8---8---8----8~~~--------------------------|
   This Cats, On A Hot Tin Roof.. Drinkin that whisky

Solo :
e------------------------8---------------8--10b-13b~~|
b---------------------------11p10p8--10--------------|
g---10b-10b-10b-10b-10b------------------------------|
d----------------------------------------------------|
a----------------------------------------------------|
e----------------------------------------------------|

Outro :
    C6
e------------8-----------8-----------8---------8--------8--------11~~~\-|
b-------8h10--------8h10--------8h10-----------------------------11~~~\-|
g---8h9---------8h9---------8h9-----------------------------------------|
d-----------------------------------------------------------------------|
a-----------------------------------------------------------------------|
e----------------------------------------8-8~----8-8~-------8~~---------|
Tap to rate this tab
# A B C D E F G H I J K L M N O P Q R S T U V W X Y Z