Song name
# A B C D E F G H I J K L M N O P Q R S T U V W X Y Z

Bribry - Sum Me Up tab

Capo on 2

This is my first tab, so I hope you like it. :) if so, RATE WELL.
____________________________________________________________________________

Intro:

E]------------|------------|------------|--------|
B]-3-5-5-0-0-0|-3-5-5-0-0-0|-3-5-5-8-7-7|-3-5-5-0|
G]------------|------------|------------|--------|
D]------------|------------|------------|--------|
A]-2-3-3------|-2-3-3------|-2-3-3-6-5-5|-2-3-3--|
E]-------3-3-3|-2-3-3------|------------|-------3|

All Verses:

E]------------|-----------|-----------|--------|
B]-3-5-5-0-0-0|3-5-5-0-0-0|3-5-5-0-0-0|--5-5-0-|
G]------------|-----------|-----------|--------|
D]------------|-----------|-----------|--------|
A]-2-3-3------|2-3-3------|2-3-3------|-2-3-3--|
E]-------3-3-3|------3-3-3|------3-3-3|------3-|

Chorus: C, Em, G, D

Final Verse:

E]------------|------------|------------|--------|
B]-3-5-5-0-0-0|-3-5-5-0-0-0|-3-5-5-8-7-7|-3-5-5-0|
G]------------|------------|------------|--------|
D]------------|------------|------------|--------|
A]-2-3-3------|-2-3-3------|-2-3-3-6-5-5|-2-3-3--|
E]-------3-3-3|-2-3-3------|------------|-------3|

Good luck. :)


Tap to rate this tab
# A B C D E F G H I J K L M N O P Q R S T U V W X Y Z